Menu:

 

Search:

 

alter bridge - broken wings:

 



Title: Broken Wings
Artist: 
Album: One Day Remains
Author: Mark Tremonti


Track 1: Clean Guitar

D#|-----------------------|-----------------------|-----------------|---------------------------|
A#|-------10--10----------|-------------------0---|-------0---------|---------0-----------------|
F#|-------9---9---7-------|---------------7-------|-6---------------|-6---7-------7-------------|
C#|-------------------9---|-9-----9---------------|-----------------|------------------7---7----|
G#|-----------------------|-----------9-----------|-0-----------0---|---------------------------|
A#|-0---------------------|-----------------------|-----------------|---------------------------|


D#|--------------10--0-----------|-----------------------------|--------------9---0-----------|
A#|--------------------------10--|-10-12---12--12-10-----------|------------------------------|
F#|------------------------------|-------------------12--------|--------------------------9---|
C#|-9----------------------------|-----------------------------|-8----------------------------|
G#|------10----------------------|-----------------------------|------9-----------------------|
A#|-8--------8-----------8-------|-------------------------0---|-7--------7-----------7-------|


D#|-------------------------|-------10--9---7-------|-----------------------|-------------------|
A#|-------------------------|-------------------7---|-7-----7-----------0---|-------0-----------|
F#|-9--11---11--11-9--------|-----------------------|---------------7-------|-6-----------------|
C#|-------------------12----|-----------------------|-----------------------|-------------7--9--|
G#|-------------------------|-----------------------|-----------9-----------|-0-----------0-----|
A#|-------------------------|-0---------------------|-----------------------|-------------------|


D#|---------------------------|--------------10--0-----------|-----------------------------|
A#|---------------------------|--------------------------10--|-10-12---12--12-10-----------|
F#|-7-------7---9---7---------|------------------------------|-------------------12--------|
C#|-----9---------------------|-9----------------------------|-----------------------------|
G#|---------------------------|------10----------------------|-----------------------------|
A#|-----------------------0---|-8--------8-----------8-------|-------------------------0---|


D#|--------------9---0-----------|----------------|---------------------------------|
A#|------------------------------|----------------|---------------------------------|
F#|--------------------------9---|-9--11----11----|-----------------0---------------|
C#|-8----------------------------|----------------|-----4---------------4-------4---|
G#|------9-----------------------|----------------|---------5---------------5-------|
A#|-7--------7-----------7-------|----------------|-3-----------3-------------------|


D#|---------------------------------|---------------------------------|---------------------------------|
A#|---------------------------------|---------------------------------|---------------------------------|
F#|-----------------0---------------|-----------------0---------------|-----------------0---------------|
C#|-----4---------------4-------4---|-----4---------------4-------4---|-----4---------------4-------4---|
G#|---------5---------------5-------|---------5---------------5-------|---------5---------------5-------|
A#|-5-----------5-------------------|-0-----------0-------------------|-0-----------0-------------------|


D#|---------------------------------|---------------------------------|---------------------------------|
A#|---------------------------------|---------------------------------|---------------------------------|
F#|-----------------0---------------|-----------------0---------------|-----------------0---------------|
C#|-----4---------------4-------4---|-----4---------------4-------4---|-----4---------------4-------4---|
G#|---------5---------------5-------|---------5---------------5-------|---------5---------------5-------|
A#|-3-----------3-------------------|-5-----------5-------------------|-0-----------0-------------------|


D#|---------------------------------|---------------------------------|---------------------------------|
A#|-----------------0---------------|---------------------------------|---------------------------------|
F#|---------------------0-----------|-----------------0---------------|-----------------0---------------|
C#|-----4-------------------4-------|-----4---------------4-------4---|-----4---------------4-------4---|
G#|---------5-------------------5---|---------5---------------5-------|---------5---------------5-------|
A#|-0-----------0-------------------|-3-----------3-------------------|-5-----------5-------------------|


D#|---------------------------------|---------------------------------|---------------------------------|
A#|---------------------------------|---------------------------------|---------------------------------|
F#|-----------------0---------------|-----------------0---------------|-----------------0---------------|
C#|-----4---------------4-------4---|-----4---------------4-------4---|-----4---------------4-------4---|
G#|---------5---------------5-------|---------5---------------5-------|---------5---------------5-------|
A#|-0-----------0-------------------|-0-----------0-------------------|-3-----------3-------------------|


D#|---------------------------------|---------------------------------|---------------------------------|
A#|---------------------------------|---------------------------------|---------------------------------|
F#|-----------------0---------------|-----------------0---------------|-----------------0---------------|
C#|-----4---------------4-------4---|-----4---------------4-------4---|-----4---------------4-------4---|
G#|---------5---------------5-------|---------5---------------5-------|---------5---------------5-------|
A#|-5-----------5-------------------|-0-----------0-------------------|-0-----------0-------------------|


D#|---------------------------------|---------------------------------|---------------------------------|
A#|---------------------------------|---------------------------------|---------------------------------|
F#|-----------------0---------------|-----------------0---------------|-----------------0---------------|
C#|-----4---------------4-------4---|-----4---------------4-------4---|-----4---------------4-------4---|
G#|---------5---------------5-------|---------5---------------5-------|---------5---------------5-------|
A#|-3-----------3-------------------|-5-----------5-------------------|-0-----------0-------------------|


D#|---------------------------------|---------------------------------|---------------------------------|
A#|---------------------------------|---------------------------------|---------------------------------|
F#|-----------------0---------------|-----------------0---------------|-----------------0---------------|
C#|-----4---------------4-------4---|-----4---------------4-------4---|-----4---------------4-------4---|
G#|---------5---------------5-------|---------5---------------5-------|---------5---------------5-------|
A#|-0-----------0-------------------|-3-----------3-------------------|-5-----------5-------------------|


D#|---------------------------------|---------------------------------|-----------------0---------------|
A#|---------------------------------|-----------------0---------------|---------------------0-----------|
F#|-----------------0---------------|---------------------0-----------|-------------------------0-------|
C#|-----4---------------4-------4---|-----4-------------------4-------|-----11----------------------11--|
G#|---------5---------------5-------|---------5-------------------5---|---------12----------------------|
A#|-0-----------0-------------------|-0-----------0-------------------|-10----------10------------------|


D#|-----------------0---------------|---------------------------------|---------------------------------|
A#|---------------------0-----------|---------------------------------|---------------------------------|
F#|-------------------------0-------|-----------------0---------------|-----------------0---------------|
C#|-----9-----------------------9---|-----4---------------4-------4---|-----4---------------4-------4---|
G#|---------10----------------------|---------5---------------5-------|---------5---------------5-------|
A#|-8-----------8-------------------|-0-----------0-------------------|-0-----------0-------------------|


D#|-----------------0---------------|-----------------0---------------|---------------------------------|
A#|---------------------0-----------|---------------------0-----------|---------------------------------|
F#|-------------------------0-------|-------------------------0-------|-----------------0---------------|
C#|-----11----------------------11--|-----9-----------------------9---|-----4---------------4-------4---|
G#|---------12----------------------|---------10----------------------|---------5---------------5-------|
A#|-10----------10------------------|-8-----------8-------------------|-0-----------0-------------------|


D#|---------------------------------|-----------------0---------------|-----------------0---------------|
A#|---------------------------------|---------------------0-----------|---------------------0-----------|
F#|-----------------0---------------|-------------------------0-------|-------------------------0-------|
C#|-----4---------------4-------4---|-----11----------------------11--|-----9-----------------------9---|
G#|---------5---------------5-------|---------12----------------------|---------10----------------------|
A#|-0-----------0-------------------|-10----------10------------------|-8-----------8-------------------|


D#|-0------|-0------|--------|--------|--------|--------|--------|--------|--------|
A#|-0------|-0------|--------|--------|--------|--------|--------|--------|--------|
F#|-0------|-0------|--------|--------|--------|--------|--------|--------|--------|
C#|-8------|-8------|--------|--------|--------|--------|--------|--------|--------|
G#|-9------|-9------|--------|--------|--------|--------|--------|--------|--------|
A#|-7------|-7------|--------|--------|--------|--------|--------|--------|--------|


D#|--------|--------|--------|--------|--------|--------|--------|--------|--------|
A#|--------|--------|--------|--------|--------|--------|--------|--------|--------|
F#|--------|--------|--------|--------|--------|--------|--------|--------|--------|
C#|--------|--------|--------|--------|--------|--------|--------|--------|--------|
G#|--------|--------|--------|--------|--------|--------|--------|--------|--------|
A#|--------|--------|--------|--------|--------|--------|--------|--------|--------|


D#|---------------------------------|---------------------------------|---------------------------------|
A#|---------------------------------|---------------------------------|---------------------------------|
F#|-----------------0---------------|-----------------0---------------|-----------------0---------------|
C#|-----4---------------4-------4---|-----4---------------4-------4---|-----4---------------4-------4---|
G#|---------5---------------5-------|---------5---------------5-------|---------5---------------5-------|
A#|-3-----------3-------------------|-5-----------5-------------------|-0-----------0-------------------|


D#|---------------------------------|---------------------------------|---------------------------------|
A#|---------------------------------|---------------------------------|---------------------------------|
F#|-----------------0---------------|-----------------0---------------|-----------------0---------------|
C#|-----4---------------4-------4---|-----4---------------4-------4---|-----4---------------4-------4---|
G#|---------5---------------5-------|---------5---------------5-------|---------5---------------5-------|
A#|-0-----------0-------------------|-3-----------3-------------------|-5-----------5-------------------|


D#|---------------------------------|---------------------------------|---------------------------------|
A#|---------------------------------|-----------------0---------------|---------------------------------|
F#|-----------------0---------------|---------------------0-----------|-----------------0---------------|
C#|-----4---------------4-------4---|-----4-------------------4-------|-----4---------------4-------4---|
G#|---------5---------------5-------|---------5-------------------5---|---------5---------------5-------|
A#|-0-----------0-------------------|-0-----------0-------------------|-3-----------3-------------------|


D#|---------------------------------|---------------------------------|---------------------------------|
A#|---------------------------------|---------------------------------|---------------------------------|
F#|-----------------0---------------|-----------------0---------------|-----------------0---------------|
C#|-----4---------------4-------4---|-----4---------------4-------4---|-----4---------------4-------4---|
G#|---------5---------------5-------|---------5---------------5-------|---------5---------------5-------|
A#|-5-----------5-------------------|-0-----------0-------------------|-0-----------0-------------------|


D#|---------------------------------|---------------------------------|---------------------------------|
A#|---------------------------------|---------------------------------|---------------------------------|
F#|-----------------0---------------|-----------------0---------------|-----------------0---------------|
C#|-----4---------------4-------4---|-----4---------------4-------4---|-----4---------------4-------4---|
G#|---------5---------------5-------|---------5---------------5-------|---------5---------------5-------|
A#|-3-----------3-------------------|-5-----------5-------------------|-0-----------0-------------------|


D#|---------------------------------|---------------------------------|---------------------------------|
A#|---------------------------------|---------------------------------|---------------------------------|
F#|-----------------0---------------|-----------------0---------------|-----------------0---------------|
C#|-----4---------------4-------4---|-----4---------------4-------4---|-----4---------------4-------4---|
G#|---------5---------------5-------|---------5---------------5-------|---------5---------------5-------|
A#|-0-----------0-------------------|-3-----------3-------------------|-5-----------5-------------------|


D#|---------------------------------|---------------------------------|---------------------------------|
A#|---------------------------------|---------------------------------|---------------------------------|
F#|-----------------0---------------|-----------------0---------------|-----------------0---------------|
C#|-----4---------------4-------4---|-----4---------------4-------4---|-----4---------------4-------4---|
G#|---------5---------------5-------|---------5---------------5-------|---------5---------------5-------|
A#|-0-----------0-------------------|-0-----------0-------------------|-3-----------3-------------------|


D#|---------------------------------|---------------------------------|---------------------------------|
A#|---------------------------------|---------------------------------|-----------------0---------------|
F#|-----------------0---------------|-----------------0---------------|---------------------0-----------|
C#|-----4---------------4-------4---|-----4---------------4-------4---|-----4-------------------4-------|
G#|---------5---------------5-------|---------5---------------5-------|---------5-------------------5---|
A#|-5-----------5-------------------|-0-----------0-------------------|-0-----------0-------------------|


D#|-----------------0---------------|-----------------0---------------|---------------------------------|
A#|---------------------0-----------|---------------------0-----------|---------------------------------|
F#|-------------------------0-------|-------------------------0-------|-----------------0---------------|
C#|-----11----------------------11--|-----9-----------------------9---|-----4---------------4-------4---|
G#|---------12----------------------|---------10----------------------|---------5---------------5-------|
A#|-10----------10------------------|-8-----------8-------------------|-0-----------0-------------------|


D#|---------------------------------|-----------------0---------------|-----------------0---------------|
A#|---------------------------------|---------------------0-----------|---------------------0-----------|
F#|-----------------0---------------|-------------------------0-------|-------------------------0-------|
C#|-----4---------------4-------4---|-----11----------------------11--|-----9-----------------------9---|
G#|---------5---------------5-------|---------12----------------------|---------10----------------------|
A#|-0-----------0-------------------|-10----------10------------------|-8-----------8-------------------|


D#|---------------------------------|---------------------------------|-----------------0---------------|
A#|---------------------------------|---------------------------------|---------------------0-----------|
F#|-----------------0---------------|-----------------0---------------|-------------------------0-------|
C#|-----4---------------4-------4---|-----4---------------4-------4---|-----11----------------------11--|
G#|---------5---------------5-------|---------5---------------5-------|---------12----------------------|
A#|-0-----------0-------------------|-0-----------0-------------------|-10----------10------------------|


D#|-----------------0---------------|-0------|-0------|--------|--------|--------|
A#|---------------------0-----------|-0------|-0------|--------|--------|--------|
F#|-------------------------0-------|-0------|-0------|--------|--------|--------|
C#|-----9-----------------------9---|-8------|-8------|--------|--------|--------|
G#|---------10----------------------|-9------|-9------|--------|--------|--------|
A#|-8-----------8-------------------|-7------|-7------|--------|--------|--------|


D#|--------|--------|--------|--------|--------|--------|--------|--------|--------|
A#|--------|--------|--------|--------|--------|--------|--------|--------|--------|
F#|--------|--------|--------|--------|--------|--------|--------|--------|--------|
C#|--------|--------|--------|--------|--------|--------|--------|--------|--------|
G#|--------|--------|--------|--------|--------|--------|--------|--------|--------|
A#|--------|--------|--------|--------|--------|--------|--------|--------|--------|


D#|--------|--------|--------|--------|--------|--------|--------|--------|--------|
A#|--------|--------|--------|--------|--------|--------|--------|--------|--------|
F#|--------|--------|--------|--------|--------|--------|--------|--------|--------|
C#|--------|--------|--------|--------|--------|--------|--------|--------|--------|
G#|--------|--------|--------|--------|--------|--------|--------|--------|--------|
A#|--------|--------|--------|--------|--------|--------|--------|--------|--------|


D#|--------|--------|--------|--------|--------|--------|--------|--------|--------|
A#|--------|--------|--------|--------|--------|--------|--------|--------|--------|
F#|--------|--------|--------|--------|--------|--------|--------|--------|--------|
C#|--------|--------|--------|--------|--------|--------|--------|--------|--------|
G#|--------|--------|--------|--------|--------|--------|--------|--------|--------|
A#|--------|--------|--------|--------|--------|--------|--------|--------|--------|


D#|--------|--------|--------|--------|--------|--------|--------|--------|--------|
A#|--------|--------|--------|--------|--------|--------|--------|--------|--------|
F#|--------|--------|--------|--------|--------|--------|--------|--------|--------|
C#|--------|--------|--------|--------|--------|--------|--------|--------|--------|
G#|--------|--------|--------|--------|--------|--------|--------|--------|--------|
A#|--------|--------|--------|--------|--------|--------|--------|--------|--------|


D#|--------|--------|--------|--------|--------|--------|--------|--------|--------|
A#|--------|--------|--------|--------|--------|--------|--------|--------|--------|
F#|--------|--------|--------|--------|--------|--------|--------|--------|--------|
C#|--------|--------|--------|--------|--------|--------|--------|--------|--------|
G#|--------|--------|--------|--------|--------|--------|--------|--------|--------|
A#|--------|--------|--------|--------|--------|--------|--------|--------|--------|


D#|-----------------------|-----------------------|-----------------|---------------------------|
A#|-------10--10----------|-------------------0---|-------0---------|---------0-----------------|
F#|-------9---9---7-------|---------------7-------|-6---------------|-6---7-------7-------------|
C#|-------------------9---|-9-----9---------------|-----------------|------------------7---7----|
G#|-----------------------|-----------9-----------|-0-----------0---|---------------------------|
A#|-0---------------------|-----------------------|-----------------|---------------------------|


D#|--------------10--0-----------|-----------------------------|--------------9---0-----------|
A#|--------------------------10--|-10-12---12--12-10-----------|------------------------------|
F#|------------------------------|-------------------12--------|--------------------------9---|
C#|-9----------------------------|-----------------------------|-8----------------------------|
G#|------10----------------------|-----------------------------|------9-----------------------|
A#|-8--------8-----------8-------|-------------------------0---|-7--------7-----------7-------|


D#|-------------------------|-------10--9---7-------|-----------------------|-------------------|
A#|-------------------------|-------------------7---|-7-----7-----------0---|-------0-----------|
F#|-9--11---11--11-9--------|-----------------------|---------------7-------|-6-----------------|
C#|-------------------12----|-----------------------|-----------------------|-------------7--9--|
G#|-------------------------|-----------------------|-----------9-----------|-0-----------0-----|
A#|-------------------------|-0---------------------|-----------------------|-------------------|


D#|---------------------------|--------------10--0-----------|-----------------------------|
A#|---------------------------|--------------------------10--|-10-12---12--12-10-----------|
F#|-7-------7---9---7---------|------------------------------|-------------------12--------|
C#|-----9---------------------|-9----------------------------|-----------------------------|
G#|---------------------------|------10----------------------|-----------------------------|
A#|-----------------------0---|-8--------8-----------8-------|-------------------------0---|


D#|--------------9---0-----------|-------------------------|-------------------------------|
A#|------------------------------|-------------------------|---------------------------11--|
F#|--------------------------9---|-9--11---11--11-9--------|-------------------11--12------|
C#|-8----------------------------|-------------------12----|-------11--12--14--------------|
G#|------9-----------------------|-------------------------|-------------------------------|
A#|-7--------7-----------7-------|-------------------------|-0-----------------------------|


D#|-----------------------------------------------|--------|
A#|-12--14-12-11--12------11----------------------|-14-----|
F#|-------------------12------11--12--9---9---11--|--------|
C#|-----------------------------------------------|--------|
G#|-----------------------------------------------|--------|
A#|-----------------------------------------------|--------|





Track 2: Distortion Guitar

D#|--------|--------|--------|--------|--------|--------|--------|--------|--------|
A#|--------|--------|--------|--------|--------|--------|--------|--------|--------|
F#|--------|--------|--------|--------|--------|--------|--------|--------|--------|
C#|--------|--------|--------|--------|--------|--------|--------|--------|--------|
G#|--------|--------|--------|--------|--------|--------|--------|--------|--------|
A#|--------|--------|--------|--------|--------|--------|--------|--------|--------|


D#|--------|--------|--------|--------|--------|--------|--------|--------|--------|
A#|--------|--------|--------|--------|--------|--------|--------|--------|--------|
F#|--------|--------|--------|--------|--------|--------|--------|--------|--------|
C#|--------|--------|--------|--------|--------|--------|--------|--------|--------|
G#|--------|--------|--------|--------|--------|--------|--------|--------|--------|
A#|--------|--------|--------|--------|--------|--------|--------|--------|--------|


D#|--------|--------|--------|--------|--------|--------|--------|--------|--------|
A#|--------|--------|--------|--------|--------|--------|--------|--------|--------|
F#|--------|--------|--------|--------|--------|--------|--------|--------|--------|
C#|--------|--------|--------|--------|--------|--------|--------|--------|--------|
G#|--------|--------|--------|--------|--------|--------|--------|--------|--------|
A#|--------|--------|--------|--------|--------|--------|--------|--------|--------|


D#|--------|--------|--------|--------|--------|--------|--------|--------|--------|
A#|--------|--------|--------|--------|--------|--------|--------|--------|--------|
F#|--------|--------|--------|--------|--------|--------|--------|--------|--------|
C#|--------|--------|--------|--------|--------|--------|--------|--------|--------|
G#|--------|--------|--------|--------|--------|--------|--------|--------|--------|
A#|--------|--------|--------|--------|--------|--------|--------|--------|--------|


D#|--------|--------|--------|--------|--------|--------|--------|--------|--------|
A#|--------|--------|--------|--------|--------|--------|--------|--------|--------|
F#|--------|--------|--------|--------|--------|--------|--------|--------|--------|
C#|--------|--------|--------|--------|--------|--------|--------|--------|--------|
G#|--------|--------|--------|--------|--------|--------|--------|--------|--------|
A#|--------|--------|--------|--------|--------|--------|--------|--------|--------|


D#|--------|--------|--------|--------|--------|--------|--------------------|-0-----0-----0---|
A#|--------|--------|--------|--------|--------|--------|--------------------|-3-----3-----3---|
F#|--------|--------|--------|--------|--------|--------|------------7---7---|-2-----2-----2---|
C#|--------|--------|--------|--------|--------|--------|------------7---7---|-0-----0-----0---|
G#|--------|--------|--------|--------|--------|--------|------------5---5---|-0-----0-----0---|
A#|--------|--------|--------|--------|--------|--------|--------------------|-3-----3-----3---|


D#|-0---0---0----0---0---0---0---|-----------------|------------------------------|
A#|-3---3---3----3---3---3---3---|-5-----5-----5---|-5---5---5----5---5---5---5---|
F#|-2---2---2----2---2---2---2---|-6-----6-----6---|-6---6---6----6---6---6---6---|
C#|-0---0---0----0---0---0---0---|-7-----7-----7---|-7---7---7----7---7---7---7---|
G#|-0---0---0----0---0---0---0---|-0-----0-----0---|-0---0---0----0---0---0---0---|
A#|-3---3---3----3---3---3---3---|-5-----5-----5---|-5---5---5----5---5---5---5---|


D#|-2-----2-----2---|-2---2---2----2---2---0---0---|------------------------|------------------------------|
A#|-3-----2-----2---|-3---3---2----2---2---0---0---|-0-----0---0----0-------|-0---0---0---0--------0---0---|
F#|-4-----4-----4---|-4---4---4----4---4---4---4---|-0-----0---0----0-------|-0---0---0---0--------0---0---|
C#|-4-----4-----4---|-4---4---4----4---4---4---4---|-0-----0---0----9---10--|-10--10--10--10--9----0---0---|
G#|-2-----2-----2---|-2---2---2----2---2---2---2---|-10----10--10---10------|-10--10--10--10-------10--10--|
A#|-0-----0-----0---|-0---0---0----0---0---0---0---|-8-----8---8----8-------|-8---8---8---8--------8---8---|


D#|-----------------|------------------------------|---------------------|--------------------------0---|
A#|-----------------|------------------------------|-5-----5---5-----5---|-5---5---5----5---5---5---0---|
F#|-7-----7-----7---|-7---7---7----7---9---9---9---|-6-----6---6-----6---|-6---6---6----6---6---6---0---|
C#|-7-----7-----7---|-7---7---7----2---0---5---0---|-7-----7---7-----7---|-7---7---7----7---7---7-------|
G#|-5-----5-----5---|-5---5---5----5---7---7---0---|-0-----0---0-----0---|-0---0---0----0---0---0-------|
A#|-----------------|------------------------------|-5-----5---5-----5---|-5---5---5----5---5---5-------|


D#|-2-----2-----2---|-2---2---2----2---2---2---2---|-----------------|--------------------|
A#|-3-----3-----3---|-3---3---3----3---3---3---3---|-0-----0-----0---|-0---0---0----0-----|
F#|-4-----4-----4---|-4---4---4----4---4---4---4---|-0-----0-----0---|-0---0---0----0-----|
C#|-4-----4-----4---|-4---4---4----4---4---4---4---|-9-----10----10--|-10--12--12---12----|
G#|-2-----2-----2---|-2---2---2----2---2---2---2---|-10----10----10--|-10--10--10---10----|
A#|-0-----0-----0---|-0---0---0----0---0---0---0---|-8-----8-----8---|-8---8---8----8-----|


D#|--------|--------|--------|--------|--------|--------|--------|--------|--------|
A#|--------|--------|--------|--------|--------|--------|--------|--------|--------|
F#|--------|--------|--------|--------|--------|--------|--------|--------|--------|
C#|-4------|-4------|--------|--------|--------|--------|--------|--------|--------|
G#|-5------|-5------|--------|--------|--------|--------|--------|--------|--------|
A#|-3------|-3------|--------|--------|--------|--------|--------|--------|--------|


D#|--------|--------|--------|--------|--------|--------|--------|--------|--------|
A#|--------|--------|--------|--------|--------|--------|--------|--------|--------|
F#|--------|--------|--------|--------|--------|--------|--------|--------|--------|
C#|--------|--------|--------|--------|--------|--------|--------|--------|--------|
G#|--------|--------|--------|--------|--------|--------|--------|--------|--------|
A#|--------|--------|--------|--------|--------|--------|--------|--------|--------|


D#|--------|--------|--------|--------|--------|--------|--------|--------|--------|
A#|--------|--------|--------|--------|--------|--------|--------|--------|--------|
F#|--------|--------|--------|--------|--------|--------|--------|--------|--------|
C#|--------|--------|--------|--------|--------|--------|--------|--------|--------|
G#|--------|--------|--------|--------|--------|--------|--------|--------|--------|
A#|--------|--------|--------|--------|--------|--------|--------|--------|--------|


D#|--------|--------|--------|--------|--------|--------|--------|--------|-----------------------|
A#|--------|--------|--------|--------|--------|--------|--------|--------|-----------------------|
F#|--------|--------|--------|--------|--------|--------|--------|--------|-------5---5---5---5---|
C#|--------|--------|--------|--------|--------|--------|--------|--------|-------5---5---5---5---|
G#|--------|--------|--------|--------|--------|--------|--------|--------|-------5---5---5---5---|
A#|--------|--------|--------|--------|--------|--------|--------|--------|-------5---5---5---5---|


D#|-----------------|------------------------------|---------------------|------------------------------|
A#|-3-----3-----3---|-3---3---3----3---3---3---0---|-5-----5---5-----5---|-5---5---5----5---5---5---5---|
F#|-2-----2-----2---|-2---2---2----2---2---2---0---|-6-----6---6-----6---|-6---6---6----6---6---6---6---|
C#|-0-----0-----0---|-0---0---0----0---0---0---0---|-7-----7---7-----7---|-7---7---7----7---7---7---7---|
G#|-0-----0-----0---|-0---0---0----0---0---0-------|-0-----0---0-----0---|-0---0---0----0---0---0---0---|
A#|-3-----3-----3---|-3---3---3----3---3---3-------|-5-----5---5-----5---|-5---5---5----5---5---5---5---|


D#|-2-----2-----2---|-2---2---2----2---2---0---0---|------------------------|---------------------------------|
A#|-3-----2-----2---|-3---3---2----2---2---0---0---|-0-----0---0---0---0----|-0---0---0---0---0---0---0---0---|
F#|-4-----4-----4---|-4---4---4----4---4---4---4---|-0-----0---0---0---0----|-0---0---0---0---0---0---0---0---|
C#|-4-----4-----4---|-4---4---4----4---4---4---4---|-9-----9---9---9---9----|-10--10--10--10--10--9---0---0---|
G#|-2-----2-----2---|-2---2---2----2---2---2---2---|-10----10--10--10--10---|-10--10--10--10--10--10--10--10--|
A#|-0-----0-----0---|-0---0---0----0---0---0---0---|-8-----8---8---8---8----|-8---8---8---8---8---8---8---8---|


D#|------------------------|------------------------------|-----------------|------------------------------|
A#|------------------------|------------------------------|-5-----5-----5---|-5---5---5----5---5---5---5---|
F#|-7-----7---7----7---7---|-7---7---7----7---9---9---9---|-6-----6-----6---|-6---6---6----6---6---6---6---|
C#|-7-----7---7----7---7---|-5---5---5----2---0---5---0---|-7-----7-----7---|-7---7---7----7---7---7---7---|
G#|-5-----5---5----5---5---|-5---5---5----5---7---7---0---|-0-----0-----0---|-0---0---0----0---0---0---0---|
A#|-3----------------------|------------------------------|-5-----5-----5---|-5---5---5----5---5---5---5---|


D#|-2-----2-----2---|-2---2---2----2---2---0---0---|---------------------------|---------------------------|
A#|-3-----2-----2---|-3---3---2----2---2---0---0---|-0-----0---0---0---0---0---|-0---0---0-----------------|
F#|-4-----4-----4---|-4---4---4----4---4---4---4---|-0-----0---0---0---0---0---|-0---0---0-----------------|
C#|-4-----4-----4---|-4---4---4----4---4---4---4---|-9-----9---10--10--10--12--|-12--12--12---11---11------|
G#|-2-----2-----2---|-2---2---2----2---2---2---2---|-10----10--10--10--10--10--|-10--10--10------------12--|
A#|-0-----0-----0---|-0---0---0----0---0---0---0---|-8-----8---8---8---8---8---|-8---8---8-----------------|


D#|------------------------------|---------------------------------|---------------------------------|
A#|---------------------10--10---|---------------------------------|---------------------------------|
F#|------------------------------|---------------------------------|-4---4---4---4---6---6---6---6---|
C#|-11--11--11--12--12-----------|-9---9---9---10--10--9---9-------|-0---0---0---0---0---0---0---0---|
G#|-0---0---0---0---0------------|-10--10--10--10--10--10--10------|-2---2---2---2---4---4---4---4---|
A#|-10---------------------------|-8---8---8---8---8---8---8---0---|---------------------------------|


D#|---------------------------------|------------------------------|---------------------------------|
A#|---------------------------------|---------------------10--10---|---------------------------------|
F#|-7---7---7---7---9---9---9---9---|------------------------------|---------------------------------|
C#|-0---0---0---0---2---2---2---2---|-11--11--11--12--12-----------|-9---9---9---10--10--9---9-------|
G#|-5---5---5---5---7---7---7---7---|-0---0---0---0---0------------|-10--10--10--10--10--10--10------|
A#|---------------------------------|-10---------------------------|-8---8---8---8---8---8---8---0---|


D#|---------------------------|---------------------------|------------------------------|
A#|---------------------------|---------------------------|---------------------10--10---|
F#|-4-----------------4-------|--------------4------------|------------------------------|
C#|-0-----------------0-------|--------------0------------|-11--11--11--12--12-----------|
G#|-2-----------------2-------|--------------2------------|-0---0---0---0---0------------|
A#|-----0----0---0--------0---|-0---0---0--------0----0---|-10---------------------------|


D#|------------------------------|---------------------------------|------------------------------------|
A#|------------------------------|---------------------------------|------------------------------------|
F#|------------------------------|---------------------------------|------------------------------------|
C#|-9---9---9---10--10--9---9----|-----------------4---5---5---4---|-2----2---4---5---4--2--0-----------|
G#|-10--10--10--10--10--10--10---|---------0---2-------------------|---------------------------4--2--0--|
A#|-8---8---8---8---8---8---8----|-0---3---------------------------|------------------------------------|


D#|------------------------------|---------------------------------|---------------------------------|
A#|---------------------10--10---|---------------------------------|---------------------------------|
F#|------------------------------|---------------------------------|---------------------------------|
C#|-11--11--11--12--12-----------|-9---9---9---10--10--9---9---8---|-8---8---8---9---9---9---9---11--|
G#|-0---0---0---0---0------------|-10--10--10--10--10--10--10--9---|-9---9---9---9---9---9---9---9---|
A#|-10---------------------------|-8---8---8---8---8---8---8---7---|-7---7---7---7---7---7---7---7---|


D#|------------------------------|-----------------|------------------------------|
A#|------------------------------|-----------------|--------------------------5---|
F#|---------11--11--11--11--12---|-7-----7-----7---|-7---7---7----7---7---7---6---|
C#|-11--11--11--11--11--11--4----|-7-----7-----7---|-7---7---7----7---7---7---7---|
G#|-9---9---9---9---9---9---10---|-5-----5-----5---|-5---5---5----5---5---7---0---|
A#|-7---7---7--------------------|-----------------|--------------------------5---|


D#|-----------------|------------------------------|-2-----2-----2---|-2---2---2----2---2---0---0---|
A#|-5-----5-----5---|-5---5---5----5---5---5---5---|-3-----3-----3---|-3---2---2----2---2---0---0---|
F#|-6-----6-----6---|-6---6---6----6---6---6---6---|-4-----4-----4---|-4---4---4----4---4---4---4---|
C#|-7-----7-----7---|-7---7---7----7---7---7---7---|-4-----4-----4---|-4---4---4----4---4---4---4---|
G#|-0-----0-----0---|-0---0---0----0---0---0---0---|-2-----2-----2---|-2---2---2----2---2---2---2---|
A#|-5-----5-----5---|-5---5---5----5---5---5---5---|-0-----0-----0---|-0---0---0----0---0---0---0---|


D#|------------------------|---------------------------------|---------------------------|
A#|-0-----0---0---0---0----|-0---0---0---0---0---0---0---0---|---------------------------|
F#|-0-----0---0---0---0----|-0---0---0---0---0---0---0---0---|-7-----7---7---9---9---11--|
C#|-0-----9---9---9---10---|-10--10--10--10--10--9---0---0---|-------5---1-------0-------|
G#|-10----10--10--10--10---|-10--10--10--10--10--10--10--10--|-5-----5---5---7---7---9---|
A#|-8-----8---8---8---8----|-8---8---8---8---8---8---8---8---|---------------------------|


D#|------------------------------|-0-----0-----0---|-0---0---0----0---0-----------|
A#|------------------------------|-10----10----10--|-10--10--10---10--10----------|
F#|-11--11--12---12--11--11--9---|-9-----9-----9---|-9---9---9----9---9-----------|
C#|-----1--------1---4---4---0---|-11----11----11--|-11--11--11---11--11----------|
G#|-9---9---10---10--9---9---0---|-0-----0-----0---|-0---0---0----0---0---0---0---|
A#|------------------------------|-----------------|----------------------0---0---|


D#|------------------------------|------------------------------|-----------------------|
A#|------------------------------|------------------------------|-0-----0---0---0---0---|
F#|-4--------------------4-------|--------------4---------------|-0-----0---0---0---0---|
C#|-0--------------------0-------|--------------0---------------|-9-----10--10--10--9---|
G#|-2--------------------2-------|--------------2---------------|-10----10--10--10--10--|
A#|-----0---0---0---0--------0---|-0---0---0--------0---0---0---|-8-----8---8---8---8---|


D#|--------------------|--------|--------|--------|--------|--------|--------|--------|
A#|-0----0---0---0-----|--------|--------|--------|--------|--------|--------|--------|
F#|-0----0---0---0-----|--------|--------|--------|--------|--------|--------|--------|
C#|-9----12--12--12----|--------|--------|--------|--------|--------|--------|--------|
G#|-10---10--10--10----|-2------|-2------|-0------|-0------|--------|--------|--------|
A#|-8----8---8---8-----|-0------|-0------|--------|--------|--------|--------|--------|


D#|--------|--------|--------|--------|--------|--------|--------|--------|--------|
A#|--------|--------|--------|--------|--------|--------|--------|--------|--------|
F#|--------|--------|--------|--------|--------|--------|--------|--------|--------|
C#|--------|--------|--------|--------|--------|--------|--------|--------|--------|
G#|--------|--------|--------|--------|--------|--------|--------|--------|--------|
A#|--------|--------|--------|--------|--------|--------|--------|--------|--------|


D#|--------|--------|--------|
A#|--------|--------|--------|
F#|--------|--------|--------|
C#|--------|--------|--------|
G#|--------|--------|--------|
A#|--------|--------|--------|