Menu:

 

Search:

 

alphabet poop - chocolate:

 



Title: Chocolate
Artist: 
Album: 
Author: Jason Graham


Track 1: Recorder

E|--------|--------|--------|--------|--------|--------|--------|--------|--------|
B|--------|--------|--------|--------|--------|--------|--------|--------|--------|
G|--------|--------|--------|--------|--------|--------|--------|--------|--------|
D|--------|--------|--------|--------|--------|--------|--------|--------|--------|
A|--------|--------|--------|--------|--------|--------|--------|--------|--------|
E|--------|--------|--------|--------|--------|--------|--------|--------|--------|


E|--------------------------|--------------------------|--------------------------|
B|--------------------------|--------------------------|--------------------------|
G|-7---7---7---7--7---------|-7---7---7---7--7---------|-7---7---7---7--7---------|
D|--------------------------|--------------------------|--------------------------|
A|--------------------------|--------------------------|--------------------------|
E|--------------------------|--------------------------|--------------------------|


E|--------------------------|--------------------------|--------------------------|
B|--------------------------|--------------------------|--------------------------|
G|-7---7---7---7--7---------|-4---4---4---4--4---------|-4---4---4---4--4---------|
D|--------------------------|--------------------------|--------------------------|
A|--------------------------|--------------------------|--------------------------|
E|--------------------------|--------------------------|--------------------------|


E|--------------------------|--------------------------|--------|--------|--------|
B|--------------------------|--------------------------|--------|--------|--------|
G|-5---5---5---5--5---------|-5---5---5---5--5---------|--------|--------|--------|
D|--------------------------|--------------------------|--------|--------|--------|
A|--------------------------|--------------------------|--------|--------|--------|
E|--------------------------|--------------------------|--------|--------|--------|


E|--------|--------|--------|--------|--------|--------|--------|--------|--------|
B|--------|--------|--------|--------|--------|--------|--------|--------|--------|
G|--------|--------|--------|--------|--------|--------|--------|--------|--------|
D|--------|--------|--------|--------|--------|--------|--------|--------|--------|
A|--------|--------|--------|--------|--------|--------|--------|--------|--------|
E|--------|--------|--------|--------|--------|--------|--------|--------|--------|


E|--------|--------|--------|--------|-15-----|-15-----17---|-12-----|-12-----14---|
B|--------|--------|--------|--------|--------|-------------|--------|-------------|
G|--------|--------|--------|--------|--------|-------------|--------|-------------|
D|--------|--------|--------|--------|--------|-------------|--------|-------------|
A|--------|--------|--------|--------|--------|-------------|--------|-------------|
E|--------|--------|--------|--------|--------|-------------|--------|-------------|


E|-15-----|-15-----17---|-12-----|-12-----14---|-15-----|-15-----17---|-12-----|-12-----14---|
B|--------|-------------|--------|-------------|--------|-------------|--------|-------------|
G|--------|-------------|--------|-------------|--------|-------------|--------|-------------|
D|--------|-------------|--------|-------------|--------|-------------|--------|-------------|
A|--------|-------------|--------|-------------|--------|-------------|--------|-------------|
E|--------|-------------|--------|-------------|--------|-------------|--------|-------------|


E|-15-----|-15-----17---|-12-----|-12----12--14--12---|-10-----|--------|--------|
B|--------|-------------|--------|--------------------|--------|--------|--------|
G|--------|-------------|--------|--------------------|--------|--------|--------|
D|--------|-------------|--------|--------------------|--------|--------|--------|
A|--------|-------------|--------|--------------------|--------|--------|--------|
E|--------|-------------|--------|--------------------|--------|--------|--------|


E|--------|--------|--------|--------|--------|--------|--------|--------|--------|
B|--------|--------|--------|--------|--------|--------|--------|--------|--------|
G|--------|--------|--------|--------|--------|--------|--------|--------|--------|
D|--------|--------|--------|--------|--------|--------|--------|--------|--------|
A|--------|--------|--------|--------|--------|--------|--------|--------|--------|
E|--------|--------|--------|--------|--------|--------|--------|--------|--------|


E|--------|--------|--------|--------|--------|--------|-15-----|-15-----17---|-12-----|
B|--------|--------|--------|--------|--------|--------|--------|-------------|--------|
G|--------|--------|--------|--------|--------|--------|--------|-------------|--------|
D|--------|--------|--------|--------|--------|--------|--------|-------------|--------|
A|--------|--------|--------|--------|--------|--------|--------|-------------|--------|
E|--------|--------|--------|--------|--------|--------|--------|-------------|--------|


E|-12-----14---|-15-----|-15-----17---|-12-----|-12-----14---|-15-----|-15-----17---|
B|-------------|--------|-------------|--------|-------------|--------|-------------|
G|-------------|--------|-------------|--------|-------------|--------|-------------|
D|-------------|--------|-------------|--------|-------------|--------|-------------|
A|-------------|--------|-------------|--------|-------------|--------|-------------|
E|-------------|--------|-------------|--------|-------------|--------|-------------|


E|-12-----|-12-----14---|-15-----|-15-----17---|-12-----|-12----12--14--12---|-14----15----17---|
B|--------|-------------|--------|-------------|--------|--------------------|------------------|
G|--------|-------------|--------|-------------|--------|--------------------|------------------|
D|--------|-------------|--------|-------------|--------|--------------------|------------------|
A|--------|-------------|--------|-------------|--------|--------------------|------------------|
E|--------|-------------|--------|-------------|--------|--------------------|------------------|


E|-17-----|-14----15----12---|-12-----|-14----15----17---|-17-----|-14----15----12---|
B|--------|------------------|--------|------------------|--------|------------------|
G|--------|------------------|--------|------------------|--------|------------------|
D|--------|------------------|--------|------------------|--------|------------------|
A|--------|------------------|--------|------------------|--------|------------------|
E|--------|------------------|--------|------------------|--------|------------------|


E|-12-----|-14----15----17---|-17-----|-14----15----12---|-12-----|-14----15----17---|
B|--------|------------------|--------|------------------|--------|------------------|
G|--------|------------------|--------|------------------|--------|------------------|
D|--------|------------------|--------|------------------|--------|------------------|
A|--------|------------------|--------|------------------|--------|------------------|
E|--------|------------------|--------|------------------|--------|------------------|


E|-17-----|-14----15----12---|-12-----|-14------14--14-14-14--14--14------|-15------15--15-15-15--15--15------|
B|--------|------------------|--------|-----------------------------------|-----------------------------------|
G|--------|------------------|--------|-----------------------------------|-----------------------------------|
D|--------|------------------|--------|-----------------------------------|-----------------------------------|
A|--------|------------------|--------|-----------------------------------|-----------------------------------|
E|--------|------------------|--------|-----------------------------------|-----------------------------------|


E|-15---14---15---17--17--|-----12-12-14--14--14------17--15--|-14------14--14-14-14--14--14------|
B|------------------------|-----------------------------------|-----------------------------------|
G|------------------------|-----------------------------------|-----------------------------------|
D|------------------------|-----------------------------------|-----------------------------------|
A|------------------------|-----------------------------------|-----------------------------------|
E|------------------------|-----------------------------------|-----------------------------------|


E|-15------15--15-15-15--15--15------|-15---14---15---17--17--|-----12-12-14--14--14------17--15--|
B|-----------------------------------|------------------------|-----------------------------------|
G|-----------------------------------|------------------------|-----------------------------------|
D|-----------------------------------|------------------------|-----------------------------------|
A|-----------------------------------|------------------------|-----------------------------------|
E|-----------------------------------|------------------------|-----------------------------------|


E|-10----------|
B|-------------|
G|-------------|
D|-------------|
A|-------------|
E|-------------|





Track 2: Acoustic Guitar

E|--------|--------|--------|--------|--------|--------|--------|--------|--------|
B|--------|--------|--------|--------|--------|--------|--------|--------|--------|
G|--------|--------|--------|--------|--------|--------|--------|--------|--------|
D|--------|--------|--------|--------|--------|--------|--------|--------|--------|
A|--------|--------|--------|--------|--------|--------|--------|--------|--------|
D|--------|--------|--------|--------|--------|--------|--------|--------|--------|


E|--------|--------|--------|--------|---------------------------------|---------------------------------|
B|--------|--------|--------|--------|---------------------------------|---------------------------------|
G|--------|--------|--------|--------|---------------------------------|---------------------------------|
D|--------|--------|--------|--------|-5---5---5---5---5---5---5---5---|-5---5---5---5---5---5---5---5---|
A|--------|--------|--------|--------|-2---2---2---2---2---2---2---2---|-2---2---2---2---2---2---2---2---|
D|--------|--------|--------|--------|---------------------------------|---------------------------------|


E|---------------------------------|-----------------------------------|------------------------------|
B|---------------------------------|-----------------------------------|------------------------------|
G|---------------------------------|-----------------------------------|------------------------------|
D|-5---5---5---5---5---5---5---5---|-5---5---5---5--5--5---7---5---4---|-4--------4-------4-------4---|
A|-3---3---3---3---3---3---3---3---|-3---3---3-------------------------|-5--------5-------5-------5---|
D|---------------------------------|-----------------------------------|------------------------------|


E|--------------------------------|------------------------------|--------------------------------|
B|--------------------------------|------------------------------|--------------------------------|
G|--------------------------------|------------------------------|--------------------------------|
D|-4----4---5--5--5---7---5---4---|-4--------4-------4-------4---|-4----4---5--5--5---7---5---4---|
A|-5----5-------------------------|-5--------5-------5-------5---|-5----5-------------------------|
D|--------------------------------|------------------------------|--------------------------------|


E|------------------------------|--------------------------------|------------------------------|
B|------------------------------|--------------------------------|------------------------------|
G|------------------------------|--------------------------------|------------------------------|
D|-5--------5-------5-------5---|-5----5---5--5--5---7---5---4---|-5--------5-------5-------5---|
A|-2--------2-------2-------2---|-2----2-------------------------|-3--------3-------3-------3---|
D|------------------------------|--------------------------------|------------------------------|


E|--------------------------------|------------------------------|--------------------------------|
B|--------------------------------|------------------------------|--------------------------------|
G|--------------------------------|------------------------------|--------------------------------|
D|-5----5---5--5--5---7---5---4---|-4--------4-------4-------4---|-4----4---5--5--5---7---5---4---|
A|-3----3-------------------------|-5--------5-------5-------5---|-5----5-------------------------|
D|--------------------------------|------------------------------|--------------------------------|


E|------------------------------|--------------------------------|------------------------------|
B|------------------------------|--------------------------------|------------------------------|
G|------------------------------|--------------------------------|------------------------------|
D|-4--------4-------4-------4---|-4----4---5--5--5---7---5---4---|-5--------5-------5-------5---|
A|-5--------5-------5-------5---|-5----5-------------------------|-2--------2-------2-------2---|
D|------------------------------|--------------------------------|------------------------------|


E|--------------------------------|------------------------------|--------------------------------|
B|--------------------------------|------------------------------|--------------------------------|
G|--------------------------------|------------------------------|--------------------------------|
D|-5----5---5--5--5---7---5---4---|-5--------5-------5-------5---|-5----5---5--5--5---7---5---4---|
A|-2----2-------------------------|-3--------3-------3-------3---|-3----3-------------------------|
D|--------------------------------|------------------------------|--------------------------------|


E|------------------------------|----------------------------------|------------------------------|
B|------------------------------|----------------------------------|------------------------------|
G|------------------------------|----------------------------------|------------------------------|
D|-4----4---4---4---4---4---4---|-4----4---4---4---4---4--4--4--4--|-4----4---4---4---4---4---5---|
A|-5----5---5---5---5---5---5---|-5----5---5---5---5---5--5--5--5--|-2----2---2---2---2---2---2---|
D|-5----5---5---5---5---5---5---|-5----5---5---5---5---5--5--5--5--|-2----2---2---2---2---2---2---|


E|----------------------------------|------------------------------|----------------------------------|
B|----------------------------------|------------------------------|----------------------------------|
G|----------------------------------|------------------------------|----------------------------------|
D|-4----4---4---4---4---4--4--4--4--|-4----4---4---4---4---4---4---|-4----4---4---4---4---4--4--4--4--|
A|-2----2---2---2---2---2--2--2--2--|-5----5---5---5---5---5---5---|-5----5---5---5---5---5--5--5--5--|
D|-2----2---2---2---2---2--2--2--2--|-5----5---5---5---5---5---5---|-5----5---5---5---5---5--5--5--5--|


E|------------------------------|----------------------------------|------------------------------|
B|------------------------------|----------------------------------|------------------------------|
G|------------------------------|----------------------------------|------------------------------|
D|-4----4---4---4---4---4---5---|-4----4---4---4---4---4--4--4--4--|-4----4---4---4---4---4---4---|
A|-2----2---2---2---2---2---2---|-2----2---2---2---2---2--2--2--2--|-5----5---5---5---5---5---5---|
D|-2----2---2---2---2---2---2---|-2----2---2---2---2---2--2--2--2--|-5----5---5---5---5---5---5---|


E|----------------------------------|------------------------------|----------------------------------|
B|----------------------------------|------------------------------|----------------------------------|
G|----------------------------------|------------------------------|----------------------------------|
D|-4----4---4---4---4---4--4--4--4--|-4----4---4---4---4---4---5---|-4----4---4---4---4---4--4--4--4--|
A|-5----5---5---5---5---5--5--5--5--|-2----2---2---2---2---2---2---|-2----2---2---2---2---2--2--2--2--|
D|-5----5---5---5---5---5--5--5--5--|-2----2---2---2---2---2---2---|-2----2---2---2---2---2--2--2--2--|


E|------------------------------|----------------------------------|------------------------------|
B|------------------------------|----------------------------------|------------------------------|
G|------------------------------|----------------------------------|------------------------------|
D|-4----4---4---4---4---4---4---|-4----4---4---4---4---4--4--4--4--|-4----4---4---4---4---4---5---|
A|-5----5---5---5---5---5---5---|-5----5---5---5---5---5--5--5--5--|-2----2---2---2---2---2---2---|
D|-5----5---5---5---5---5---5---|-5----5---5---5---5---5--5--5--5--|-2----2---2---2---2---2---2---|


E|---------------------------|--------|--------|------------------------------|--------------------------------|
B|---------------------------|--------|--------|------------------------------|--------------------------------|
G|---------------------------|--------|--------|------------------------------|--------------------------------|
D|-4----4---4---4---4---2----|-0------|-0------|-4--------4-------4-------4---|-4----4---5--5--5---7---5---4---|
A|-2----2---2---2---4---2----|-0------|-0------|-5--------5-------5-------5---|-5----5-------------------------|
D|-2----2---2---2---4---2----|-0------|-0------|------------------------------|--------------------------------|


E|------------------------------|--------------------------------|------------------------------|
B|------------------------------|--------------------------------|------------------------------|
G|------------------------------|--------------------------------|------------------------------|
D|-4--------4-------4-------4---|-4----4---5--5--5---7---5---4---|-5--------5-------5-------5---|
A|-5--------5-------5-------5---|-5----5-------------------------|-2--------2-------2-------2---|
D|------------------------------|--------------------------------|------------------------------|


E|--------------------------------|------------------------------|--------------------------------|
B|--------------------------------|------------------------------|--------------------------------|
G|--------------------------------|------------------------------|--------------------------------|
D|-5----5---5--5--5---7---5---4---|-5--------5-------5-------5---|-5----5---5--5--5---7---5---4---|
A|-2----2-------------------------|-3--------3-------3-------3---|-3----3-------------------------|
D|--------------------------------|------------------------------|--------------------------------|


E|------------------------------|--------------------------------|------------------------------|
B|------------------------------|--------------------------------|------------------------------|
G|------------------------------|--------------------------------|------------------------------|
D|-4--------4-------4-------4---|-4----4---5--5--5---7---5---4---|-4--------4-------4-------4---|
A|-5--------5-------5-------5---|-5----5-------------------------|-5--------5-------5-------5---|
D|------------------------------|--------------------------------|------------------------------|


E|--------------------------------|------------------------------|--------------------------------|
B|--------------------------------|------------------------------|--------------------------------|
G|--------------------------------|------------------------------|--------------------------------|
D|-4----4---5--5--5---7---5---4---|-5--------5-------5-------5---|-5----5---5--5--5---7---5---4---|
A|-5----5-------------------------|-2--------2-------2-------2---|-2----2-------------------------|
D|--------------------------------|------------------------------|--------------------------------|


E|------------------------------|--------------------------------|------------------------------|
B|------------------------------|--------------------------------|------------------------------|
G|------------------------------|--------------------------------|------------------------------|
D|-5--------5-------5-------5---|-5----5---5--5--5---7---5---4---|-4----4---4---4---4---4---4---|
A|-3--------3-------3-------3---|-3----3-------------------------|-5----5---5---5---5---5---5---|
D|------------------------------|--------------------------------|-5----5---5---5---5---5---5---|


E|----------------------------------|------------------------------|----------------------------------|
B|----------------------------------|------------------------------|----------------------------------|
G|----------------------------------|------------------------------|----------------------------------|
D|-4----4---4---4---4---4--4--4--4--|-4----4---4---4---4---4---5---|-4----4---4---4---4---4--4--4--4--|
A|-5----5---5---5---5---5--5--5--5--|-2----2---2---2---2---2---2---|-2----2---2---2---2---2--2--2--2--|
D|-5----5---5---5---5---5--5--5--5--|-2----2---2---2---2---2---2---|-2----2---2---2---2---2--2--2--2--|


E|------------------------------|----------------------------------|------------------------------|
B|------------------------------|----------------------------------|------------------------------|
G|------------------------------|----------------------------------|------------------------------|
D|-4----4---4---4---4---4---4---|-4----4---4---4---4---4--4--4--4--|-4----4---4---4---4---4---5---|
A|-5----5---5---5---5---5---5---|-5----5---5---5---5---5--5--5--5--|-2----2---2---2---2---2---2---|
D|-5----5---5---5---5---5---5---|-5----5---5---5---5---5--5--5--5--|-2----2---2---2---2---2---2---|


E|----------------------------------|------------------------------|----------------------------------|
B|----------------------------------|------------------------------|----------------------------------|
G|----------------------------------|------------------------------|----------------------------------|
D|-4----4---4---4---4---4--4--4--4--|-4----4---4---4---4---4---4---|-4----4---4---4---4---4--4--4--4--|
A|-2----2---2---2---2---2--2--2--2--|-5----5---5---5---5---5---5---|-5----5---5---5---5---5--5--5--5--|
D|-2----2---2---2---2---2--2--2--2--|-5----5---5---5---5---5---5---|-5----5---5---5---5---5--5--5--5--|


E|------------------------------|----------------------------------|------------------------------|
B|------------------------------|----------------------------------|------------------------------|
G|------------------------------|----------------------------------|------------------------------|
D|-4----4---4---4---4---4---5---|-4----4---4---4---4---4--4--4--4--|-4----4---4---4---4---4---4---|
A|-2----2---2---2---2---2---2---|-2----2---2---2---2---2--2--2--2--|-5----5---5---5---5---5---5---|
D|-2----2---2---2---2---2---2---|-2----2---2---2---2---2--2--2--2--|-5----5---5---5---5---5---5---|


E|----------------------------------|------------------------------|---------------------------|
B|----------------------------------|------------------------------|---------------------------|
G|----------------------------------|------------------------------|---------------------------|
D|-4----4---4---4---4---4--4--4--4--|-4----4---4---4---4---4---5---|-4----4---4---4---4---2----|
A|-5----5---5---5---5---5--5--5--5--|-2----2---2---2---2---2---2---|-2----2---2---2---4---2----|
D|-5----5---5---5---5---5--5--5--5--|-2----2---2---2---2---2---2---|-2----2---2---2---4---2----|


E|---------------------------------|-----------------------------------|---------------------------------|
B|---------------------------------|-----------------------------------|---------------------------------|
G|---------------------------------|-----------------------------------|---------------------------------|
D|-4---4---4---5---5---5---7---7---|-7---7---7---7---7---7---7---7--7--|-4---4---4---5---5---5---2---2---|
A|-5---5---5---7---7---7---9---9---|-9---9---9---9---9---9---9---9--9--|-5---5---5---7---7---7---4---4---|
D|-5---5---5---7---7---7---9---9---|-9---9---9---9---9---9---9---9--9--|-5---5---5---7---7---7---4---4---|


E|-----------------------------------|---------------------------------|-----------------------------------|
B|-----------------------------------|---------------------------------|-----------------------------------|
G|-----------------------------------|---------------------------------|-----------------------------------|
D|-2---2---2---5--5--5---7---5---4---|-4---4---4---5---5---5---7---7---|-7---7---7---7---7---7---7---7--7--|
A|-4---4---4-------------------------|-5---5---5---7---7---7---9---9---|-9---9---9---9---9---9---9---9--9--|
D|-4---4---4-------------------------|-5---5---5---7---7---7---9---9---|-9---9---9---9---9---9---9---9--9--|


E|---------------------------------|-----------------------------------|---------------------------------|
B|---------------------------------|-----------------------------------|---------------------------------|
G|---------------------------------|-----------------------------------|---------------------------------|
D|-4---4---4---5---5---5---2---2---|-2---2---2---5--5--5---7---5---4---|-4---4---4---5---5---5---7---7---|
A|-5---5---5---7---7---7---4---4---|-4---4---4-------------------------|-5---5---5---7---7---7---9---9---|
D|-5---5---5---7---7---7---4---4---|-4---4---4-------------------------|-5---5---5---7---7---7---9---9---|


E|-----------------------------------|---------------------------------|-----------------------------------|
B|-----------------------------------|---------------------------------|-----------------------------------|
G|-----------------------------------|---------------------------------|-----------------------------------|
D|-7---7---7---7---7---7---7---7--7--|-4---4---4---5---5---5---2---2---|-2---2---2---5--5--5---7---5---4---|
A|-9---9---9---9---9---9---9---9--9--|-5---5---5---7---7---7---4---4---|-4---4---4-------------------------|
D|-9---9---9---9---9---9---9---9--9--|-5---5---5---7---7---7---4---4---|-4---4---4-------------------------|


E|---------------------------------|-----------------------------------|---------------------------------|
B|---------------------------------|-----------------------------------|---------------------------------|
G|---------------------------------|-----------------------------------|---------------------------------|
D|-4---4---4---5---5---5---7---7---|-7---7---7---7---7---7---7---7--7--|-4---4---4---5---5---5---2---2---|
A|-5---5---5---7---7---7---9---9---|-9---9---9---9---9---9---9---9--9--|-5---5---5---7---7---7---4---4---|
D|-5---5---5---7---7---7---9---9---|-9---9---9---9---9---9---9---9--9--|-5---5---5---7---7---7---4---4---|


E|-----------------------------------|--------------------------------|--------------------------------|
B|-----------------------------------|--------------------------------|--------------------------------|
G|-----------------------------------|--------------------------------|--------------------------------|
D|-2---2---2---5--5--5---7---5---4---|-4----4---5--5--5---7---5---4---|-5----5---5--5--5---7---5---4---|
A|-4---4---4-------------------------|-5----5-------------------------|-7----7-------------------------|
D|-4---4---4-------------------------|-5----5-------------------------|-7----7-------------------------|


E|---------------------------|---------------------------|--------------------------------|
B|---------------------------|---------------------------|--------------------------------|
G|---------------------------|---------------------------|--------------------------------|
D|-7----7---7---7----7---7---|-----2---4----4---4---2----|-4----4---5--5--5---7---5---4---|
A|-9----9---9---9----9---9---|-----2---4----4---4---2----|-5----5-------------------------|
D|-9----9---9---9----9---9---|-----2---4----4---4---2----|-5----5-------------------------|


E|--------------------------------|---------------------------|---------------------------|
B|--------------------------------|---------------------------|---------------------------|
G|--------------------------------|---------------------------|---------------------------|
D|-5----5---5--5--5---7---5---4---|-7----7---7---7----7---7---|-----2---4----4---4---2----|
A|-7----7-------------------------|-9----9---9---9----9---9---|-----2---4----4---4---2----|
D|-7----7-------------------------|-9----9---9---9----9---9---|-----2---4----4---4---2----|


E|-------------|
B|-------------|
G|-------------|
D|-0-----------|
A|-0-----------|
D|-0-----------|





Track 3: bass

G|-----------------------------|---------------------------------|-----------------------------------|
D|-------5--5--5---7---5---4---|---------------------------------|-------------5--5--5---7---5---4---|
A|-----------------------------|-5---5---5---5---5---5---5---5---|-5---5---5-------------------------|
D|-----------------------------|---------------------------------|-----------------------------------|


G|---------------------------------|-----------------------------------|---------------------------------|
D|---------------------------------|-------------5--5--5---7---5---4---|---------------------------------|
A|-5---5---5---5---5---5---5---5---|-5---5---5-------------------------|-2---2---2---2---2---2---2---2---|
D|---------------------------------|-----------------------------------|---------------------------------|


G|-----------------------------------|---------------------------------|-----------------------------------|
D|-------------5--5--5---7---5---4---|---------------------------------|-------------5--5--5---7---5---4---|
A|-2---2---2-------------------------|-3---3---3---3---3---3---3---3---|-3---3---3-------------------------|
D|-----------------------------------|---------------------------------|-----------------------------------|


G|---------------------------------|-----------------------------------|---------------------------------|
D|---------------------------------|-------------5--5--5---7---5---4---|---------------------------------|
A|-5---5---5---5---5---5---5---5---|-5---5---5-------------------------|-5---5---5---5---5---5---5---5---|
D|---------------------------------|-----------------------------------|---------------------------------|


G|-----------------------------------|---------------------------------|-----------------------------------|
D|-------------5--5--5---7---5---4---|---------------------------------|-------------5--5--5---7---5---4---|
A|-5---5---5-------------------------|-2---2---2---2---2---2---2---2---|-2---2---2-------------------------|
D|-----------------------------------|---------------------------------|-----------------------------------|


G|---------------------------------|-----------------------------------|-----------------------------------|
D|---------------------------------|-------------5--5--5---7---5---4---|---------------------------4-------|
A|-3---3---3---3---3---3---3---3---|-3---3---3-------------------------|-5---5---5---5--5--5---5-------5---|
D|---------------------------------|-----------------------------------|-----------------------------------|


G|-----------------------------------|-----------------------------------|-----------------------------------|
D|-------------5--5--5---7---5---4---|---------------------------4-------|-------------5--5--5---7---5---4---|
A|-5---5---5-------------------------|-5---5---5---5--5--5---5-------5---|-5---5---5-------------------------|
D|-----------------------------------|-----------------------------------|-----------------------------------|


G|-----------------------------------|-----------------------------------|-----------------------------------|
D|---------------------------5-------|-------------5--5--5---7---5---4---|---------------------------5-------|
A|-2---2---2---2--2--2---2-------2---|-2---2---2-------------------------|-3---3---3---3--3--3---3-------3---|
D|-----------------------------------|-----------------------------------|-----------------------------------|


G|-----------------------------------|-----------------------------------|-----------------------------------|
D|-------------5--5--5---7---5---4---|---------------------------4-------|-------------5--5--5---7---5---4---|
A|-3---3---3-------------------------|-5---5---5---5--5--5---5-------5---|-5---5---5-------------------------|
D|-----------------------------------|-----------------------------------|-----------------------------------|


G|-----------------------------------|-----------------------------------|-----------------------------------|
D|---------------------------4-------|-------------5--5--5---7---5---4---|---------------------------5-------|
A|-5---5---5---5--5--5---5-------5---|-5---5---5-------------------------|-2---2---2---2--2--2---2-------2---|
D|-----------------------------------|-----------------------------------|-----------------------------------|


G|-----------------------------------|-----------------------------------|-----------------------------------|
D|-------------5--5--5---7---5---4---|---------------------------5-------|-------------5--5--5---7---5---4---|
A|-2---2---2-------------------------|-3---3---3---3--3--3---3-------3---|-3---3---3-------------------------|
D|-----------------------------------|-----------------------------------|-----------------------------------|


G|-------------------------------------|-------------------------------------|-------------------------------------|
D|---------5-----------------5---------|---------5-----------------5---------|---------2-----------------2---------|
A|-------------------------------------|-------------------------------------|-------------------------------------|
D|-5---5-------5--5--5---5-------5--5--|-5---5-------5--5--5---5-------5--5--|-2---2-------2--2--2---2-------2--2--|


G|-------------------------------------|-------------------------------------|-------------------------------------|
D|---------2---------------------2--2--|---------5-----------------5---------|---------5-----------------5---------|
A|-------------------------------------|-------------------------------------|-------------------------------------|
D|-2---2-------2--2--4---2---0---------|-5---5-------5--5--5---5-------5--5--|-5---5-------5--5--5---5-------5--5--|


G|-------------------------------------|-------------------------------------|-------------------------------------|
D|---------2-----------------2---------|---------2---------------------2--2--|---------5-----------------5---------|
A|-------------------------------------|-------------------------------------|-------------------------------------|
D|-2---2-------2--2--2---2-------2--2--|-2---2-------2--2--4---2---0---------|-5---5-------5--5--5---5-------5--5--|


G|-------------------------------------|-------------------------------------|-------------------------------------|
D|---------5-----------------5---------|---------2-----------------2---------|---------2---------------------2--2--|
A|-------------------------------------|-------------------------------------|-------------------------------------|
D|-5---5-------5--5--5---5-------5--5--|-2---2-------2--2--2---2-------2--2--|-2---2-------2--2--4---2---0---------|


G|-------------------------------------|-------------------------------------|-------------------------------------|
D|---------5-----------------5---------|---------5-----------------5---------|---------2-----------------2---------|
A|-------------------------------------|-------------------------------------|-------------------------------------|
D|-5---5-------5--5--5---5-------5--5--|-5---5-------5--5--5---5-------5--5--|-2---2-------2--2--2---2-------2--2--|


G|-------------------------------------|--------|-----------------------------|-----------------------------------|
D|---------2---------------------2--2--|--------|-------5--5--5---7---5---4---|---------------------------4-------|
A|-------------------------------------|--------|-----------------------------|-5---5---5---5--5--5---5-------5---|
D|-2---2-------2--2--4---2---0---------|-0------|-0---------------------------|-----------------------------------|


G|-----------------------------------|-----------------------------------|-----------------------------------|
D|-------------5--5--5---7---5---4---|---------------------------4-------|-------------5--5--5---7---5---4---|
A|-5---5---5-------------------------|-5---5---5---5--5--5---5-------5---|-5---5---5-------------------------|
D|-----------------------------------|-----------------------------------|-----------------------------------|


G|-----------------------------------|-----------------------------------|-----------------------------------|
D|---------------------------5-------|-------------5--5--5---7---5---4---|---------------------------5-------|
A|-2---2---2---2--2--2---2-------2---|-2---2---2-------------------------|-3---3---3---3--3--3---3-------3---|
D|-----------------------------------|-----------------------------------|-----------------------------------|


G|-----------------------------------|-----------------------------------|-----------------------------------|
D|-------------5--5--5---7---5---4---|---------------------------4-------|-------------5--5--5---7---5---4---|
A|-3---3---3-------------------------|-5---5---5---5--5--5---5-------5---|-5---5---5-------------------------|
D|-----------------------------------|-----------------------------------|-----------------------------------|


G|-----------------------------------|-----------------------------------|-----------------------------------|
D|---------------------------4-------|-------------5--5--5---7---5---4---|---------------------------5-------|
A|-5---5---5---5--5--5---5-------5---|-5---5---5-------------------------|-2---2---2---2--2--2---2-------2---|
D|-----------------------------------|-----------------------------------|-----------------------------------|


G|-----------------------------------|-----------------------------------|-----------------------------------|
D|-------------5--5--5---7---5---4---|---------------------------5-------|-------------5--5--5---7---5---4---|
A|-2---2---2-------------------------|-3---3---3---3--3--3---3-------3---|-3---3---3-------------------------|
D|-----------------------------------|-----------------------------------|-----------------------------------|


G|-------------------------------------|-------------------------------------|-------------------------------------|
D|---------5-----------------5---------|---------5-----------------5---------|---------2-----------------2---------|
A|-------------------------------------|-------------------------------------|-------------------------------------|
D|-5---5-------5--5--5---5-------5--5--|-5---5-------5--5--5---5-------5--5--|-2---2-------2--2--2---2-------2--2--|


G|-------------------------------------|-------------------------------------|-------------------------------------|
D|---------2---------------------2--2--|---------5-----------------5---------|---------5-----------------5---------|
A|-------------------------------------|-------------------------------------|-------------------------------------|
D|-2---2-------2--2--4---2---0---------|-5---5-------5--5--5---5-------5--5--|-5---5-------5--5--5---5-------5--5--|


G|-------------------------------------|-------------------------------------|-------------------------------------|
D|---------2-----------------2---------|---------2---------------------2--2--|---------5-----------------5---------|
A|-------------------------------------|-------------------------------------|-------------------------------------|
D|-2---2-------2--2--2---2-------2--2--|-2---2-------2--2--4---2---0---------|-5---5-------5--5--5---5-------5--5--|


G|-------------------------------------|-------------------------------------|-------------------------------------|
D|---------5-----------------5---------|---------2-----------------2---------|---------2---------------------2--2--|
A|-------------------------------------|-------------------------------------|-------------------------------------|
D|-5---5-------5--5--5---5-------5--5--|-2---2-------2--2--2---2-------2--2--|-2---2-------2--2--4---2---0---------|


G|-------------------------------------|-------------------------------------|-------------------------------------|
D|---------5-----------------5---------|---------5-----------------5---------|---------2-----------------2---------|
A|-------------------------------------|-------------------------------------|-------------------------------------|
D|-5---5-------5--5--5---5-------5--5--|-5---5-------5--5--5---5-------5--5--|-2---2-------2--2--2---2-------2--2--|


G|-------------------------------------|-----------------------------------------|
D|---------2---------------------2--2--|-----------------------------------------|
A|-------------------------------------|-----------------------------------------|
D|-2---2-------2--2--4---2---0---------|-5---5--5--5--5--7---7--7--7--7--9---9---|


G|-------------------------------------------|-------------------------------------------|
D|-------------------------------------------|-------------------------------------------|
A|-------------------------------------------|-------------------------------------------|
D|-9--9--9---9--9--9--9--9---9---9--9--9--9--|-5---5--5--5--5--7---7--7--7--7--4---4--4--|


G|---------------------------------------|-----------------------------------------|
D|---------------------------------------|-----------------------------------------|
A|---------------------------------------|-----------------------------------------|
D|-4--4--4---4--4--4--4--4---4---4---4---|-5---5--5--5--5--7---7--7--7--7--9---9---|


G|-------------------------------------------|-------------------------------------------|
D|-------------------------------------------|-------------------------------------------|
A|-------------------------------------------|-------------------------------------------|
D|-9--9--9---9--9--9--9--9---9---9--9--9--9--|-5---5--5--5--5--7---7--7--7--7--4---4--4--|


G|---------------------------------------|-----------------------------------------|
D|---------------------------------------|-----------------------------------------|
A|---------------------------------------|-----------------------------------------|
D|-4--4--4---4--4--4--4--4---4---4---4---|-5---5--5--5--5--7---7--7--7--7--9---9---|


G|-------------------------------------------|-------------------------------------------|
D|-------------------------------------------|-------------------------------------------|
A|-------------------------------------------|-------------------------------------------|
D|-9--9--9---9--9--9--9--9---9---9--9--9--9--|-5---5--5--5--5--7---7--7--7--7--4---4--4--|


G|---------------------------------------|-----------------------------------------|
D|---------------------------------------|-----------------------------------------|
A|---------------------------------------|-----------------------------------------|
D|-4--4--4---4--4--4--4--4---4---4---4---|-5---5--5--5--5--7---7--7--7--7--9---9---|


G|-------------------------------------------|-------------------------------------------|
D|-------------------------------------------|-------------------------------------------|
A|-------------------------------------------|-------------------------------------------|
D|-9--9--9---9--9--9--9--9---9---9--9--9--9--|-5---5--5--5--5--7---7--7--7--7--4---4--4--|


G|---------------------------------------|-------------------------------------|-------------------------------------|
D|---------------------------------------|---------------5--5--5---7---5---4---|---------------5--5--5---7---5---4---|
A|---------------------------------------|-------------------------------------|-------------------------------------|
D|-4--4--4---4--4--4--4--4---4---4---4---|-5---5--5--4-------------------------|-7---7--7--5-------------------------|


G|----------------------------------|---------------------------|-------------------------------------|
D|-----------9--9-------------------|---------------------------|---------------5--5--5---7---5---4---|
A|----------------------------------|---------------------------|-------------------------------------|
D|-9---9--9--------9---9----9---9---|-----2---4----4---4---2----|-5---5--5--4-------------------------|


G|-------------------------------------|----------------------------------|---------------------------|
D|---------------5--5--5---7---5---4---|-----------9--9-------------------|---------------------------|
A|-------------------------------------|----------------------------------|---------------------------|
D|-7---7--7--5-------------------------|-9---9--9--------9---9----9---9---|-----2---4----4---4---2----|


G|-------------|
D|-------------|
A|-------------|
D|-0-----------|





Track 4: drum

D|--------|------0---------0----|------0------------0----|------0---------0----|------0----0--0------0---0--0--|
A|--------|-0----0----0----0----|-0----0----0-------0----|-0----0----0----0----|-0----0----0--0------0---0--0--|
D|--------|-0----0----0----0----|-0----0----0---0---0----|-0----0----0----0----|-0----0----0-----0---0---0-----|


D|------0---------0----|------0------------0----|------0---------0----|------0----0--0------0---0--0--|
A|-0----0----0----0----|-0----0----0-------0----|-0----0----0----0----|-0----0----0--0------0---0--0--|
D|-0----0----0----0----|-0----0----0---0---0----|-0----0----0----0----|-0----0----0-----0---0---0-----|


D|------0---------0----|------0------------0----|------0---------0----|------0----0--0------0---0--0--|
A|-0----0----0----0----|-0----0----0-------0----|-0----0----0----0----|-0----0----0--0------0---0--0--|
D|-0----0----0----0----|-0----0----0---0---0----|-0----0----0----0----|-0----0----0-----0---0---0-----|


D|------0---------0----|------0------------0----|------0---------0----|------0----0--0------0---0--0--|
A|-0----0----0----0----|-0----0----0-------0----|-0----0----0----0----|-0----0----0--0------0---0--0--|
D|-0----0----0----0----|-0----0----0---0---0----|-0----0----0----0----|-0----0----0-----0---0---0-----|


D|------0---------0----|------0------------0----|------0---------0----|------0----0--0------0---0--0--|
A|-0----0----0----0----|-0----0----0-------0----|-0----0----0----0----|-0----0----0--0------0---0--0--|
D|-0----0----0----0----|-0----0----0---0---0----|-0----0----0----0----|-0----0----0-----0---0---0-----|


D|------0---------0----|------0------------0----|------0---------0----|------0----0--0------0---0--0--|
A|-0----0----0----0----|-0----0----0-------0----|-0----0----0----0----|-0----0----0--0------0---0--0--|
D|-0----0----0----0----|-0----0----0---0---0----|-0----0----0----0----|-0----0----0-----0---0---0-----|


D|------0---------0----|------0------------0----|------0---------0----|------0----0--0------0---0--0--|
A|-0----0----0----0----|-0----0----0-------0----|-0----0----0----0----|-0----0----0--0------0---0--0--|
D|-0----0----0----0----|-0----0----0---0---0----|-0----0----0----0----|-0----0----0-----0---0---0-----|


D|------0---------0----|------0------------0----|------0---------0----|------0----0--0------0---0--0--|
A|-0----0----0----0----|-0----0----0-------0----|-0----0----0----0----|-0----0----0--0------0---0--0--|
D|-0----0----0----0----|-0----0----0---0---0----|-0----0----0----0----|-0----0----0-----0---0---0-----|


D|---------0---------------0-------|---------0---------------0---------|---------0---------------0-------|
A|-0---0---0---0---0---0---0---0---|-0---0---0---0---0---0---0---0--0--|-0---0---0---0---0---0---0---0---|
D|-0-------0-------0-------0-------|-0-------0-------0-------0---0--0--|-0-------0-------0-------0-------|


D|-----0---0--0------0---0--0--0---0--0--|---------0---------------0-------|---------0---------------0---------|
A|-0---0---0--0------0---0--0--0---0--0--|-0---0---0---0---0---0---0---0---|-0---0---0---0---0---0---0---0--0--|
D|-0---0---0-----0---0---0-----0---0-----|-0-------0-------0-------0-------|-0-------0-------0-------0---0--0--|


D|---------0---------------0-------|-----0---0--0------0---0--0--0---0--0--|---------0---------------0-------|
A|-0---0---0---0---0---0---0---0---|-0---0---0--0------0---0--0--0---0--0--|-0---0---0---0---0---0---0---0---|
D|-0-------0-------0-------0-------|-0---0---0-----0---0---0-----0---0-----|-0-------0-------0-------0-------|


D|---------0---------------0---------|---------0---------------0-------|-----0---0--0------0---0--0--0---0--0--|
A|-0---0---0---0---0---0---0---0--0--|-0---0---0---0---0---0---0---0---|-0---0---0--0------0---0--0--0---0--0--|
D|-0-------0-------0-------0---0--0--|-0-------0-------0-------0-------|-0---0---0-----0---0---0-----0---0-----|


D|---------0---------------0-------|---------0---------------0---------|---------0---------------0-------|
A|-0---0---0---0---0---0---0---0---|-0---0---0---0---0---0---0---0--0--|-0---0---0---0---0---0---0---0---|
D|-0-------0-------0-------0-------|-0-------0-------0-------0---0--0--|-0-------0-------0-------0-------|


D|-----0---0--0------0---0--0--0---0--0--|-0------|--------|------0---------0----|
A|-0---0---0--0------0---0--0--0---0--0--|-0------|--------|-0----0----0----0----|
D|-0---0---0-----0---0---0-----0---0-----|-0------|--------|-0----0----0----0----|


D|------0------------0----|------0---------0----|------0----0--0------0---0--0--|------0---------0----|
A|-0----0----0-------0----|-0----0----0----0----|-0----0----0--0------0---0--0--|-0----0----0----0----|
D|-0----0----0---0---0----|-0----0----0----0----|-0----0----0-----0---0---0-----|-0----0----0----0----|


D|------0------------0----|------0---------0----|------0----0--0------0---0--0--|------0---------0----|
A|-0----0----0-------0----|-0----0----0----0----|-0----0----0--0------0---0--0--|-0----0----0----0----|
D|-0----0----0---0---0----|-0----0----0----0----|-0----0----0-----0---0---0-----|-0----0----0----0----|


D|------0------------0----|------0---------0----|------0----0--0------0---0--0--|------0---------0----|
A|-0----0----0-------0----|-0----0----0----0----|-0----0----0--0------0---0--0--|-0----0----0----0----|
D|-0----0----0---0---0----|-0----0----0----0----|-0----0----0-----0---0---0-----|-0----0----0----0----|


D|------0------------0----|------0---------0----|------0----0--0------0---0--0--|---------0---------------0-------|
A|-0----0----0-------0----|-0----0----0----0----|-0----0----0--0------0---0--0--|-0---0---0---0---0---0---0---0---|
D|-0----0----0---0---0----|-0----0----0----0----|-0----0----0-----0---0---0-----|-0-------0-------0-------0-------|


D|---------0---------------0---------|---------0---------------0-------|-----0---0--0------0---0--0--0---0--0--|
A|-0---0---0---0---0---0---0---0--0--|-0---0---0---0---0---0---0---0---|-0---0---0--0------0---0--0--0---0--0--|
D|-0-------0-------0-------0---0--0--|-0-------0-------0-------0-------|-0---0---0-----0---0---0-----0---0-----|


D|---------0---------------0-------|---------0---------------0---------|---------0---------------0-------|
A|-0---0---0---0---0---0---0---0---|-0---0---0---0---0---0---0---0--0--|-0---0---0---0---0---0---0---0---|
D|-0-------0-------0-------0-------|-0-------0-------0-------0---0--0--|-0-------0-------0-------0-------|


D|-----0---0--0------0---0--0--0---0--0--|---------0---------------0-------|---------0---------------0---------|
A|-0---0---0--0------0---0--0--0---0--0--|-0---0---0---0---0---0---0---0---|-0---0---0---0---0---0---0---0--0--|
D|-0---0---0-----0---0---0-----0---0-----|-0-------0-------0-------0-------|-0-------0-------0-------0---0--0--|


D|---------0---------------0-------|-----0---0--0------0---0--0--0---0--0--|---------0---------------0-------|
A|-0---0---0---0---0---0---0---0---|-0---0---0--0------0---0--0--0---0--0--|-0---0---0---0---0---0---0---0---|
D|-0-------0-------0-------0-------|-0---0---0-----0---0---0-----0---0-----|-0-------0-------0-------0-------|


D|---------0---------------0---------|---------0---------------0-------|-----0---0--0------0---0--0--0---0--0--|
A|-0---0---0---0---0---0---0---0--0--|-0---0---0---0---0---0---0---0---|-0---0---0--0------0---0--0--0---0--0--|
D|-0-------0-------0-------0---0--0--|-0-------0-------0-------0-------|-0---0---0-----0---0---0-----0---0-----|


D|-0---0--0--0--0--0---0--0--0--0--0---0--0--|-0--0--0---0--0--0--0--0---0--0--0--0--0--0--|
A|-----------------0---------------0---------|-------0---------------0---------------------|
D|-0---------------0---------------0---------|-------0---------------0---------------------|


D|-0---0--0--0--0--0---0--0--0--0--0---0--0--|-0--0--0---0--0--0--0--0---0---0---0---|
A|-0---------------0---------------0---------|-------0---------------0---0---0---0---|
D|-0---------------0---------------0---------|-------0---------------0---0---0---0---|


D|-0---0--0--0--0--0---0--0--0--0--0---0--0--|-0--0--0---0--0--0--0--0---0--0--0--0--0--0--|
A|-----------------0---------------0---------|-------0---------------0---------------------|
D|-0---------------0---------------0---------|-------0---------------0---------------------|


D|-0---0--0--0--0--0---0--0--0--0--0---0--0--|-0--0--0---0--0--0--0--0---0---0---0---|
A|-0---------------0---------------0---------|-------0---------------0---0---0---0---|
D|-0---------------0---------------0---------|-------0---------------0---0---0---0---|


D|-0---0--0--0--0--0---0--0--0--0--0---0--0--|-0--0--0---0--0--0--0--0---0--0--0--0--0--0--|
A|-----------------0---------------0---------|-------0---------------0---------------------|
D|-0---------------0---------------0---------|-------0---------------0---------------------|


D|-0---0--0--0--0--0---0--0--0--0--0---0--0--|-0--0--0---0--0--0--0--0---0---0---0---|
A|-0---------------0---------------0---------|-------0---------------0---0---0---0---|
D|-0---------------0---------------0---------|-------0---------------0---0---0---0---|


D|-0---0--0--0--0--0---0--0--0--0--0---0--0--|-0--0--0---0--0--0--0--0---0--0--0--0--0--0--|
A|-----------------0---------------0---------|-------0---------------0---------------------|
D|-0---------------0---------------0---------|-------0---------------0---------------------|


D|-0---0--0--0--0--0---0--0--0--0--0---0--0--|-0--0--0---0--0--0--0--0---0---0---0---|
A|-0---------------0---------------0---------|-------0---------------0---0---0---0---|
D|-0---------------0---------------0---------|-------0---------------0---0---0---0---|


D|-0---------0---------0---------0---------|-0---------0---------0---------0---------|
A|-0---0--0--0---0--0--0---0--0--0---0--0--|-0---0--0--0---0--0--0---0--0--0---0--0--|
D|-0---0--0--0---0--0--0---0--0--0---0--0--|-0---0--0--0---0--0--0---0--0--0---0--0--|


D|-0---------0---------0---------0---------|-0---------0---------0---------0---------|
A|-0---0--0--0---0--0--0---0--0--0---0--0--|-0---0--0--0---0--0--0---0--0--0---0--0--|
D|-0---0--0--0---0--0--0---0--0--0---0--0--|-0---0--0--0---0--0--0---0--0--0---0--0--|


D|-0---------0---------0---------0---------|-0---------0---------0---------0---------|
A|-0---0--0--0---0--0--0---0--0--0---0--0--|-0---0--0--0---0--0--0---0--0--0---0--0--|
D|-0---0--0--0---0--0--0---0--0--0---0--0--|-0---0--0--0---0--0--0---0--0--0---0--0--|


D|-0---------0---------0---------0---------|-0---------0---------0---------0---------|
A|-0---0--0--0---0--0--0---0--0--0---0--0--|-0---0--0--0---0--0--0---0--0--0---0--0--|
D|-0---0--0--0---0--0--0---0--0--0---0--0--|-0---0--0--0---0--0--0---0--0--0---0--0--|


D|-0-----------|
A|-0-----------|
D|-0-----------|