Menu:

 

Search:

 

alkaline trio - your neck:

 



Title: Your Neck
Artist: 
Album: Crimson
Author: Alkaline Trio


Track 1: Intro Guitar

E|---------------------------------|---------------------------------|---------------------------------|
B|---------------------------------|---------------------------------|---------------------------------|
G|---------------------------------|---------------------------------|---------------------------------|
D|---------------------------------|---------------------------------|---------------------------------|
A|-5---5---5---5---5---5---5---5---|-5---5---5---5---5---5---5---5---|-5---5---5---5---5---5---5---5---|
E|-3---3---3---3---3---3---3---3---|-3---3---3---3---3---3---3---3---|-3---3---3---3---3---3---3---3---|


E|---------------------------------|---------------------------------|---------------------------------|
B|---------------------------------|---------------------------------|---------------------------------|
G|---------------------------------|---------------------------------|---------------------------------|
D|---------------------------------|---------------------------------|---------------------------------|
A|-5---5---5---5---5---5---5---5---|-2---2---2---2---2---2---2---2---|-2---2---2---2---2---2---2---2---|
E|-3---3---3---3---2---2---2---2---|-0---0---0---0---0---0---0---0---|-0---0---0---0---0---0---0---0---|


E|---------------------------------|---------------------------------|---------------------------------|
B|---------------------------------|---------------------------------|---------------------------------|
G|---------------------------------|---------------------------------|---------------------------------|
D|---------------------------------|-----------------5---5---5---5---|-5---5---5---5---5---5---5---5---|
A|-2---2---2---2---2---2---2---2---|-2---2---2---2---2---2---2---2---|-3---3---3---3---3---3---3---3---|
E|-0---0---0---0---0---0---0---0---|-0---0---0---0-------------------|---------------------------------|


E|---------------------------------|---------------------------------|---------------------------------|
B|---------------------------------|---------------------------------|---------------------------------|
G|---------------------------------|---------------------------------|---------------------------------|
D|-5---5---5---5---5---5---5---5---|-5---5---5---5---5---5---5---5---|-5---5---5---5---5---5---5---5---|
A|-3---3---3---3---3---3---3---3---|-3---3---3---3---3---3---3---3---|-3---3---3---3---3---3---3---3---|
E|---------------------------------|---------------------------------|---------------------------------|


E|---------------------------------|---------------------------------|---------------------------------|
B|---------------------------------|---------------------------------|---------------------------------|
G|---------------------------------|---------------------------------|---------------------------------|
D|-7---7---7---7---7---7---7---7---|-7---7---7---7---7---7---7---7---|-7---7---7---7---7---7---7---7---|
A|-5---5---5---5---5---5---5---5---|-5---5---5---5---5---5---5---5---|-5---5---5---5---5---5---5---5---|
E|---------------------------------|---------------------------------|---------------------------------|


E|-------------|--------|--------|--------|--------|--------|--------|--------|--------|
B|-------------|--------|--------|--------|--------|--------|--------|--------|--------|
G|-------------|--------|--------|--------|--------|--------|--------|--------|--------|
D|-5-----5-----|--------|--------|--------|--------|--------|--------|--------|--------|
A|-3-----2-----|--------|--------|--------|--------|--------|--------|--------|--------|
E|-------------|--------|--------|--------|--------|--------|--------|--------|--------|


E|--------|--------|--------|--------|--------|--------|--------|--------|--------|
B|--------|--------|--------|--------|--------|--------|--------|--------|--------|
G|--------|--------|--------|--------|--------|--------|--------|--------|--------|
D|--------|--------|--------|--------|--------|--------|--------|--------|--------|
A|--------|--------|--------|--------|--------|--------|--------|--------|--------|
E|--------|--------|--------|--------|--------|--------|--------|--------|--------|


E|--------|--------|--------|--------|--------|--------|--------|--------|--------|
B|--------|--------|--------|--------|--------|--------|--------|--------|--------|
G|--------|--------|--------|--------|--------|--------|--------|--------|--------|
D|--------|--------|--------|--------|--------|--------|--------|--------|--------|
A|--------|--------|--------|--------|--------|--------|--------|--------|--------|
E|--------|--------|--------|--------|--------|--------|--------|--------|--------|


E|--------|--------|--------|--------|--------|--------|--------|--------|--------|
B|--------|--------|--------|--------|--------|--------|--------|--------|--------|
G|--------|--------|--------|--------|--------|--------|--------|--------|--------|
D|--------|--------|--------|--------|--------|--------|--------|--------|--------|
A|--------|--------|--------|--------|--------|--------|--------|--------|--------|
E|--------|--------|--------|--------|--------|--------|--------|--------|--------|


E|--------|--------|--------|--------|--------|--------|--------|--------|--------|
B|--------|--------|--------|--------|--------|--------|--------|--------|--------|
G|--------|--------|--------|--------|--------|--------|--------|--------|--------|
D|--------|--------|--------|--------|--------|--------|--------|--------|--------|
A|--------|--------|--------|--------|--------|--------|--------|--------|--------|
E|--------|--------|--------|--------|--------|--------|--------|--------|--------|


E|--------|--------|--------|--------|--------|--------|--------|--------|--------|
B|--------|--------|--------|--------|--------|--------|--------|--------|--------|
G|--------|--------|--------|--------|--------|--------|--------|--------|--------|
D|--------|--------|--------|--------|--------|--------|--------|--------|--------|
A|--------|--------|--------|--------|--------|--------|--------|--------|--------|
E|--------|--------|--------|--------|--------|--------|--------|--------|--------|


E|--------|--------|--------|--------|--------|--------|--------|--------|--------|
B|--------|--------|--------|--------|--------|--------|--------|--------|--------|
G|--------|--------|--------|--------|--------|--------|--------|--------|--------|
D|--------|--------|--------|--------|--------|--------|--------|--------|--------|
A|--------|--------|--------|--------|--------|--------|--------|--------|--------|
E|--------|--------|--------|--------|--------|--------|--------|--------|--------|


E|--------|--------|--------|--------|--------|--------|--------|--------|--------|
B|--------|--------|--------|--------|--------|--------|--------|--------|--------|
G|--------|--------|--------|--------|--------|--------|--------|--------|--------|
D|--------|--------|--------|--------|--------|--------|--------|--------|--------|
A|--------|--------|--------|--------|--------|--------|--------|--------|--------|
E|--------|--------|--------|--------|--------|--------|--------|--------|--------|


E|--------|--------|--------|--------|--------|--------|--------|--------|--------|
B|--------|--------|--------|--------|--------|--------|--------|--------|--------|
G|--------|--------|--------|--------|--------|--------|--------|--------|--------|
D|--------|--------|--------|--------|--------|--------|--------|--------|--------|
A|--------|--------|--------|--------|--------|--------|--------|--------|--------|
E|--------|--------|--------|--------|--------|--------|--------|--------|--------|


E|--------|--------|--------|--------|--------|--------|--------|--------|--------|
B|--------|--------|--------|--------|--------|--------|--------|--------|--------|
G|--------|--------|--------|--------|--------|--------|--------|--------|--------|
D|--------|--------|--------|--------|--------|--------|--------|--------|--------|
A|--------|--------|--------|--------|--------|--------|--------|--------|--------|
E|--------|--------|--------|--------|--------|--------|--------|--------|--------|


E|--------|--------|--------|--------|--------|--------|--------|--------|--------|
B|--------|--------|--------|--------|--------|--------|--------|--------|--------|
G|--------|--------|--------|--------|--------|--------|--------|--------|--------|
D|--------|--------|--------|--------|--------|--------|--------|--------|--------|
A|--------|--------|--------|--------|--------|--------|--------|--------|--------|
E|--------|--------|--------|--------|--------|--------|--------|--------|--------|


E|--------|--------|--------|--------|--------|--------|--------|--------|--------|
B|--------|--------|--------|--------|--------|--------|--------|--------|--------|
G|--------|--------|--------|--------|--------|--------|--------|--------|--------|
D|--------|--------|--------|--------|--------|--------|--------|--------|--------|
A|--------|--------|--------|--------|--------|--------|--------|--------|--------|
E|--------|--------|--------|--------|--------|--------|--------|--------|--------|


E|--------|--------|--------|--------|--------|
B|--------|--------|--------|--------|--------|
G|--------|--------|--------|--------|--------|
D|--------|--------|--------|--------|--------|
A|--------|--------|--------|--------|--------|
E|--------|--------|--------|--------|--------|





Track 2: Lead

E|--------|--------|--------|--------|--------|--------|--------|--------|--------|
B|--------|--------|--------|--------|--------|--------|--------|--------|--------|
G|--------|--------|--------|--------|--------|--------|--------|--------|--------|
D|--------|--------|--------|--------|--------|--------|--------|--------|--------|
A|--------|--------|--------|--------|--------|--------|--------|--------|--------|
E|--------|--------|--------|--------|--------|--------|--------|--------|--------|


E|--------|--------|--------|--------|--------|--------|--------|---------------------------------|
B|--------|--------|--------|--------|--------|--------|--------|---------------------------------|
G|--------|--------|--------|--------|--------|--------|--------|-----9---9---9---9---9---9---9---|
D|--------|--------|--------|--------|--------|--------|--------|---------------------------------|
A|--------|--------|--------|--------|--------|--------|--------|-----7---7---7---7---7---7---7---|
E|--------|--------|--------|--------|--------|--------|--------|---------------------------------|


E|---------------------------------|---------------------------------|---------------------------------|
B|---------------------------------|---------------------------------|---------------------------------|
G|-7---7---7---7---12--12--12--7---|-----9---9---9---9---9---9---9---|-7---7---7---7---5---5---5---4---|
D|---------------------------------|---------------------------------|---------------------------------|
A|-5---5---5---5---10--10--10--5---|-----7---7---7---7---7---7---7---|-5---5---5---5---3---3---3---2---|
E|---------------------------------|---------------------------------|---------------------------------|


E|---------------------------------|---------------------------------|---------------------------------|
B|---------------------------------|---------------------------------|---------------------------------|
G|-----9---9---9---9---9---9---9---|-7---7---7---7---12--12--12--7---|-----9---9---9---9---9---9---9---|
D|---------------------------------|---------------------------------|---------------------------------|
A|-----7---7---7---7---7---7---7---|-5---5---5---5---10--10--10--5---|-----7---7---7---7---7---7---7---|
E|---------------------------------|---------------------------------|---------------------------------|


E|---------------------------------|---------------------------------|---------------------------------|
B|---------------------------------|---------------------------------|---------------------------------|
G|-11--11--11--11--12--12--12--12--|---------------------------------|---------------------------------|
D|---------------------------------|---------------------------------|---------------------------------|
A|-9---9---9---9---10--10--10--10--|-2---2---2---2---2---2---2---2---|-2---2---2---2---2---2---2---2---|
E|---------------------------------|-0---0---0---0---0---0---0---0---|-0---0---0---0---0---0---0---0---|


E|---------------------------------|---------------------------------|---------------------------------|
B|---------------------------------|---------------------------------|---------------------------------|
G|---------------------------------|---------------------------------|---------------------------------|
D|-2---2---2---2---2---2---2---2---|-5---5---5---5---4---4---4---4---|---------------------------------|
A|-0---0---0---0---0---0---0---0---|-3---3---3---3---2---2---2---2---|-2---2---2---2---2---2---2---2---|
E|---------------------------------|---------------------------------|-0---0---0---0---0---0---0---0---|


E|---------------------------------|---------------------------------|---------------------------------|
B|---------------------------------|---------------------------------|---------------------------------|
G|---------------------------------|---------------------------------|---------------------------------|
D|---------------------------------|-2---2---2---2---2---2---2---2---|-5---5---5---5---4---4---4---4---|
A|-2---2---2---2---2---2---2---2---|-0---0---0---0---0---0---0---0---|-3---3---3---3---2---2---2---2---|
E|-0---0---0---0---0---0---0---0---|---------------------------------|---------------------------------|


E|---------------------------------|---------------------------------|---------------------------------|
B|---------------------------------|---------------------------------|---------------------------------|
G|---------------------------------|---------------------------------|---------------------------------|
D|---------------------------------|---------------------------------|-2---2---2---2---2---2---2---2---|
A|-2---2---2---2---2---2---2---2---|-2---2---2---2---2---2---2---2---|-0---0---0---0---0---0---0---0---|
E|-0---0---0---0---0---0---0---0---|-0---0---0---0---0---0---0---0---|---------------------------------|


E|---------------------------------|---------------------------------|---------------------------------|
B|---------------------------------|---------------------------------|---------------------------------|
G|---------------------------------|---------------------------------|---------------------------------|
D|-5---5---5---5---4---4---4---4---|-5---5---5---5---5---5---5---5---|-5---5---5---5---5---5---5---5---|
A|-3---3---3---3---2---2---2---2---|-3---3---3---3---3---3---3---3---|-3---3---3---3---3---3---3---3---|
E|---------------------------------|---------------------------------|---------------------------------|


E|---------------------------------|---------------------------------|---------------------------------|
B|---------------------------------|---------------------------------|---------------------------------|
G|---------------------------------|---------------------------------|-----9---9---9---9---9---9---9---|
D|-7---7---7---7---7---7---7---7---|-5---5---5---5---4---4---4---4---|---------------------------------|
A|-5---5---5---5---5---5---5---5---|-3---3---3---3---2---2---2---2---|-----7---7---7---7---7---7---7---|
E|---------------------------------|---------------------------------|---------------------------------|


E|---------------------------------|---------------------------------|---------------------------------|
B|---------------------------------|---------------------------------|---------------------------------|
G|-7---7---7---7---12--12--12--7---|-----9---9---9---9---9---9---9---|-7---7---7---7---5---5---5---4---|
D|---------------------------------|---------------------------------|---------------------------------|
A|-5---5---5---5---10--10--10--5---|-----7---7---7---7---7---7---7---|-5---5---5---5---3---3---3---2---|
E|---------------------------------|---------------------------------|---------------------------------|


E|---------------------------------|---------------------------------|---------------------------------|
B|---------------------------------|---------------------------------|---------------------------------|
G|---------------------------------|---------------------------------|---------------------------------|
D|---------------------------------|---------------------------------|-2---2---2---2---2---2---2---2---|
A|-2---2---2---2---2---2---2---2---|-2---2---2---2---2---2---2---2---|-0---0---0---0---0---0---0---0---|
E|-0---0---0---0---0---0---0---0---|-0---0---0---0---0---0---0---0---|---------------------------------|


E|---------------------------------|---------------------------------|---------------------------------|
B|---------------------------------|---------------------------------|---------------------------------|
G|---------------------------------|---------------------------------|---------------------------------|
D|-5---5---5---5---4---4---4---4---|---------------------------------|---------------------------------|
A|-3---3---3---3---2---2---2---2---|-2---2---2---2---2---2---2---2---|-2---2---2---2---2---2---2---2---|
E|---------------------------------|-0---0---0---0---0---0---0---0---|-0---0---0---0---0---0---0---0---|


E|---------------------------------|---------------------------------|---------------------------------|
B|---------------------------------|---------------------------------|---------------------------------|
G|---------------------------------|---------------------------------|---------------------------------|
D|-2---2---2---2---2---2---2---2---|-5---5---5---5---4---4---4---4---|---------------------------------|
A|-0---0---0---0---0---0---0---0---|-3---3---3---3---2---2---2---2---|-2---2---2---2---2---2---2---2---|
E|---------------------------------|---------------------------------|-0---0---0---0---0---0---0---0---|


E|---------------------------------|---------------------------------|---------------------------------|
B|---------------------------------|---------------------------------|---------------------------------|
G|---------------------------------|---------------------------------|---------------------------------|
D|---------------------------------|-2---2---2---2---2---2---2---2---|-5---5---5---5---4---4---4---4---|
A|-2---2---2---2---2---2---2---2---|-0---0---0---0---0---0---0---0---|-3---3---3---3---2---2---2---2---|
E|-0---0---0---0---0---0---0---0---|---------------------------------|---------------------------------|


E|---------------------------------|---------------------------------|---------------------------------|
B|---------------------------------|---------------------------------|---------------------------------|
G|---------------------------------|---------------------------------|---------------------------------|
D|-5---5---5---5---5---5---5---5---|-5---5---5---5---5---5---5---5---|-7---7---7---7---7---7---7---7---|
A|-3---3---3---3---3---3---3---3---|-3---3---3---3---3---3---3---3---|-5---5---5---5---5---5---5---5---|
E|---------------------------------|---------------------------------|---------------------------------|


E|---------------------------------|---------------------------------|---------------------------------|
B|---------------------------------|---------------------------------|---------------------------------|
G|---------------------------------|---------------------------------|---------------------------------|
D|-5---5---5---5---4---4---4---4---|---------------------------------|---------------------------------|
A|-3---3---3---3---2---2---2---2---|-5---5---5---5---5---5---5---5---|-5---5---5---5---5---5---5---5---|
E|---------------------------------|-3---3---3---3---3---3---3---3---|-3---3---3---3---3---3---3---3---|


E|---------------------------------|---------------------------------|---------------------------------|
B|---------------------------------|---------------------------------|---------------------------------|
G|---------------------------------|---------------------------------|---------------------------------|
D|---------------------------------|---------------------------------|---------------------------------|
A|-5---5---5---5---5---5---5---5---|-5---5---5---5---5---5---5---5---|-2---2---2---2---2---2---2---2---|
E|-3---3---3---3---3---3---3---3---|-3---3---3---3---2---2---2---2---|-0---0---0---0---0---0---0---0---|


E|---------------------------------|---------------------------------|---------------------------------|
B|---------------------------------|---------------------------------|---------------------------------|
G|---------------------------------|---------------------------------|---------------------------------|
D|---------------------------------|---------------------------------|-----------------5---5---5---5---|
A|-2---2---2---2---2---2---2---2---|-2---2---2---2---2---2---2---2---|-2---2---2---2---2---2---2---2---|
E|-0---0---0---0---0---0---0---0---|-0---0---0---0---0---0---0---0---|-0---0---0---0-------------------|


E|---------------------------------|---------------------------------|---------------------------------|
B|---------------------------------|---------------------------------|---------------------------------|
G|---------------------------------|---------------------------------|---------------------------------|
D|-5---5---5---5---5---5---5---5---|-5---5---5---5---5---5---5---5---|-5---5---5---5---5---5---5---5---|
A|-3---3---3---3---3---3---3---3---|-3---3---3---3---3---3---3---3---|-3---3---3---3---3---3---3---3---|
E|---------------------------------|---------------------------------|---------------------------------|


E|---------------------------------|---------------------------------|---------------------------------|
B|---------------------------------|---------------------------------|---------------------------------|
G|---------------------------------|---------------------------------|---------------------------------|
D|-5---5---5---5---5---5---5---5---|-7---7---7---7---7---7---7---7---|-7---7---7---7---7---7---7---7---|
A|-3---3---3---3---3---3---3---3---|-5---5---5---5---5---5---5---5---|-5---5---5---5---5---5---5---5---|
E|---------------------------------|---------------------------------|---------------------------------|


E|---------------------------------|---------------------------------|--------|--------|
B|---------------------------------|---------------------------------|--------|--------|
G|---------------------------------|---------------------------------|--------|--------|
D|-7---7---7---7---7---7---7---7---|-5---5---5---5---4---4---4---4---|-2------|-2------|
A|-5---5---5---5---5---5---5---5---|-3---3---3---3---2---2---2---2---|-2------|-2------|
E|---------------------------------|---------------------------------|-0------|-0------|


E|--------|--------|--------|--------|--------|--------|---------------------------------|
B|--------|--------|--------|--------|--------|--------|---------------------------------|
G|-5------|-5------|-2------|-2------|-7------|-8------|---------------------------------|
D|-5------|-5------|-2------|-2------|-7------|-8------|-2---2---2---2---2---2---2---2---|
A|-3------|-3------|-0------|-0------|-5------|-6------|-2---2---2---2---2---2---2---2---|
E|--------|--------|--------|--------|--------|--------|-0---0---0---0---0---0---0---0---|


E|---------------------------------|---------------------------------|---------------------------------|
B|---------------------------------|---------------------------------|---------------------------------|
G|---------------------------------|-5---5---5---5---5---5---5---5---|-5---5---5---5---5---5---5---5---|
D|-2---2---2---2---2---2---2---2---|-5---5---5---5---5---5---5---5---|-5---5---5---5---5---5---5---5---|
A|-2---2---2---2---2---2---2---2---|-3---3---3---3---3---3---3---3---|-3---3---3---3---3---3---3---3---|
E|-0---0---0---0---0---0---0---0---|---------------------------------|---------------------------------|


E|---------------------------------|---------------------------------|---------------------------------|
B|---------------------------------|---------------------------------|---------------------------------|
G|-2---2---2---2---2---2---2---2---|-2---2---2---2---2---2---2---2---|-7---7---7---7---7---7---7---7---|
D|-2---2---2---2---2---2---2---2---|-2---2---2---2---2---2---2---2---|-7---7---7---7---7---7---7---7---|
A|-0---0---0---0---0---0---0---0---|-0---0---0---0---0---0---0---0---|-5---5---5---5---5---5---5---5---|
E|---------------------------------|---------------------------------|---------------------------------|


E|---------------------------------|---------------------------------|---------------------------------|
B|---------------------------------|---------------------------------|---------------------------------|
G|-8---8---8---8---8---8---8---8---|---------------------------------|---------------------------------|
D|-8---8---8---8---8---8---8---8---|---------------------------------|---------------------------------|
A|-6---6---6---6---6---6---6---6---|-5---5---5---5---5---5---5---5---|-5---5---5---5---5---5---5---5---|
E|---------------------------------|-3---3---3---3---3---3---3---3---|-3---3---3---3---3---3---3---3---|


E|--------|-----------------|---------------------------------|---------------------------------|
B|--------|-----------------|---------------------------------|---------------------------------|
G|--------|-----------------|---------------------------------|---------------------------------|
D|--------|-----------------|---------------------------------|---------------------------------|
A|-5------|-5-----5----5----|-2---2---2---2---2---2---2---2---|-2---2---2---2---2---2---2---2---|
E|-3------|-3-----3----2----|-0---0---0---0---0---0---0---0---|-0---0---0---0---0---0---0---0---|


E|---------------------------------|---------------------------------|---------------------------------|
B|---------------------------------|---------------------------------|---------------------------------|
G|---------------------------------|---------------------------------|---------------------------------|
D|---------------------------------|-----------------5---5---5---5---|-5---5---5---5---5---5---5---5---|
A|-2---2---2---2---2---2---2---2---|-2---2---2---2---2---2---2---2---|-3---3---3---3---3---3---3---3---|
E|-0---0---0---0---0---0---0---0---|-0---0---0---0-------------------|---------------------------------|


E|---------------------------------|---------------------------------|---------------------------------|
B|---------------------------------|---------------------------------|---------------------------------|
G|---------------------------------|---------------------------------|---------------------------------|
D|-5---5---5---5---5---5---5---5---|-5---5---5---5---5---5---5---5---|-5---5---5---5---5---5---5---5---|
A|-3---3---3---3---3---3---3---3---|-3---3---3---3---3---3---3---3---|-3---3---3---3---3---3---3---3---|
E|---------------------------------|---------------------------------|---------------------------------|


E|---------------------------------|---------------------------------|---------------------------------|
B|---------------------------------|---------------------------------|---------------------------------|
G|---------------------------------|---------------------------------|---------------------------------|
D|-7---7---7---7---7---7---7---7---|-7---7---7---7---7---7---7---7---|-7---7---7---7---7---7---7---7---|
A|-5---5---5---5---5---5---5---5---|-5---5---5---5---5---5---5---5---|-5---5---5---5---5---5---5---5---|
E|---------------------------------|---------------------------------|---------------------------------|


E|---------------------------------|---------------------------------|---------------------------------|
B|---------------------------------|---------------------------------|---------------------------------|
G|---------------------------------|---------------------------------|---------------------------------|
D|-5---5---5---5---5---5---5---5---|---------------------------------|---------------------------------|
A|-3---3---3---3---3---3---3---3---|-5---5---5---5---5---5---5---5---|-5---5---5---5---5---5---5---5---|
E|---------------------------------|-3---3---3---3---3---3---3---3---|-3---3---3---3---3---3---3---3---|


E|---------------------------------|---------------------------------|---------------------------------|
B|---------------------------------|---------------------------------|---------------------------------|
G|---------------------------------|---------------------------------|---------------------------------|
D|---------------------------------|---------------------------------|---------------------------------|
A|-5---5---5---5---5---5---5---5---|-5---5---5---5---5---5---5---5---|-2---2---2---2---2---2---2---2---|
E|-3---3---3---3---3---3---3---3---|-3---3---3---3---2---2---2---2---|-0---0---0---0---0---0---0---0---|


E|---------------------------------|---------------------------------|---------------------------------|
B|---------------------------------|---------------------------------|---------------------------------|
G|---------------------------------|---------------------------------|---------------------------------|
D|---------------------------------|---------------------------------|-----------------5---5---5---5---|
A|-2---2---2---2---2---2---2---2---|-2---2---2---2---2---2---2---2---|-2---2---2---2---2---2---2---2---|
E|-0---0---0---0---0---0---0---0---|-0---0---0---0---0---0---0---0---|-0---0---0---0-------------------|


E|---------------------------------|---------------------------------|---------------------------------|
B|---------------------------------|---------------------------------|---------------------------------|
G|---------------------------------|---------------------------------|---------------------------------|
D|-5---5---5---5---5---5---5---5---|-5---5---5---5---5---5---5---5---|-5---5---5---5---5---5---5---5---|
A|-3---3---3---3---3---3---3---3---|-3---3---3---3---3---3---3---3---|-3---3---3---3---3---3---3---3---|
E|---------------------------------|---------------------------------|---------------------------------|


E|---------------------------------|---------------------------------|---------------------------------|
B|---------------------------------|---------------------------------|---------------------------------|
G|---------------------------------|---------------------------------|---------------------------------|
D|-5---5---5---5---5---5---5---5---|-7---7---7---7---7---7---7---7---|-7---7---7---7---7---7---7---7---|
A|-3---3---3---3---3---3---3---3---|-5---5---5---5---5---5---5---5---|-5---5---5---5---5---5---5---5---|
E|---------------------------------|---------------------------------|---------------------------------|


E|---------------------------------|---------------------------------|--------|--------|
B|---------------------------------|---------------------------------|--------|--------|
G|---------------------------------|---------------------------------|--------|--------|
D|-7---7---7---7---7---7---7---7---|-5---5---5---5---4---4---4---4---|-2------|-2------|
A|-5---5---5---5---5---5---5---5---|-3---3---3---3---2---2---2---2---|-2------|-2------|
E|---------------------------------|---------------------------------|-0------|-0------|


E|--------|--------|
B|--------|--------|
G|--------|--------|
D|-2------|-2------|
A|-2------|-2------|
E|-0------|-0------|





Track 3: Rhythm

E|--------|--------|--------|--------|--------|--------|--------|--------|--------|
B|--------|--------|--------|--------|--------|--------|--------|--------|--------|
G|--------|--------|--------|--------|--------|--------|--------|--------|--------|
D|--------|--------|--------|--------|--------|--------|--------|--------|--------|
A|--------|--------|--------|--------|--------|--------|--------|--------|--------|
E|--------|--------|--------|--------|--------|--------|--------|--------|--------|


E|--------|--------|--------|--------|--------|--------|--------|---------------------------------|
B|--------|--------|--------|--------|--------|--------|--------|---------------------------------|
G|--------|--------|--------|--------|--------|--------|--------|---------------------------------|
D|--------|--------|--------|--------|--------|--------|--------|-----2---2---2---2---2---2---2---|
A|--------|--------|--------|--------|--------|--------|--------|-----2---2---2---2---2---2---2---|
E|--------|--------|--------|--------|--------|--------|--------|-----0---0---0---0---0---0---0---|


E|---------------------------------|---------------------------------|---------------------------------|
B|---------------------------------|---------------------------------|---------------------------------|
G|-2---2---2---2---5---5---5---5---|---------------------------------|-2---2---2---2---5---5---5---5---|
D|-2---2---2---2---5---5---5---5---|-----2---2---2---2---2---2---2---|-2---2---2---2---5---5---5---5---|
A|-0---0---0---0---3---3---3---3---|-----2---2---2---2---2---2---2---|-0---0---0---0---3---3---3---3---|
E|---------------------------------|-----0---0---0---0---0---0---0---|---------------------------------|


E|---------------------------------|---------------------------------|---------------------------------|
B|---------------------------------|---------------------------------|---------------------------------|
G|---------------------------------|-2---2---2---2---5---5---5---5---|-----2---2---2---2---2---2---2---|
D|-----2---2---2---2---2---2---2---|-2---2---2---2---5---5---5---5---|-----2---2---2---2---2---2---2---|
A|-----2---2---2---2---2---2---2---|-0---0---0---0---3---3---3---3---|-----0---0---0---0---0---0---0---|
E|-----0---0---0---0---0---0---0---|---------------------------------|---------------------------------|


E|---------------------------------|--------|--------|--------|--------|--------|--------|
B|---------------------------------|--------|--------|--------|--------|--------|--------|
G|-4---4---4---4---5---5---5---5---|--------|--------|--------|--------|--------|--------|
D|-4---4---4---4---5---5---5---5---|--------|--------|--------|--------|--------|--------|
A|-2---2---2---2---3---3---3---3---|--------|--------|--------|--------|--------|--------|
E|---------------------------------|--------|--------|--------|--------|--------|--------|


E|--------|--------|--------|--------|--------|--------|--------|--------|--------|
B|--------|--------|--------|--------|--------|--------|--------|--------|--------|
G|--------|--------|--------|--------|--------|--------|--------|--------|--------|
D|--------|--------|--------|--------|--------|--------|--------|--------|--------|
A|--------|--------|--------|--------|--------|--------|--------|--------|--------|
E|--------|--------|--------|--------|--------|--------|--------|--------|--------|


E|--------|---------------------------------|---------------------------------|---------------------------------|
B|--------|---------------------------------|---------------------------------|---------------------------------|
G|--------|---------------------------------|-2---2---2---2---5---5---5---5---|---------------------------------|
D|--------|-----2---2---2---2---2---2---2---|-2---2---2---2---5---5---5---5---|-----2---2---2---2---2---2---2---|
A|--------|-----2---2---2---2---2---2---2---|-0---0---0---0---3---3---3---3---|-----2---2---2---2---2---2---2---|
E|--------|-----0---0---0---0---0---0---0---|---------------------------------|-----0---0---0---0---0---0---0---|


E|---------------------------------|--------|--------|--------|--------|--------|--------|
B|---------------------------------|--------|--------|--------|--------|--------|--------|
G|-2---2---2---2---5---5---5---5---|--------|--------|--------|--------|--------|--------|
D|-2---2---2---2---5---5---5---5---|--------|--------|--------|--------|--------|--------|
A|-0---0---0---0---3---3---3---3---|--------|--------|--------|--------|--------|--------|
E|---------------------------------|--------|--------|--------|--------|--------|--------|


E|--------|--------|--------|--------|--------|--------|--------|--------|--------|
B|--------|--------|--------|--------|--------|--------|--------|--------|--------|
G|--------|--------|--------|--------|--------|--------|--------|--------|--------|
D|--------|--------|--------|--------|--------|--------|--------|--------|--------|
A|--------|--------|--------|--------|--------|--------|--------|--------|--------|
E|--------|--------|--------|--------|--------|--------|--------|--------|--------|


E|--------|--------|--------|--------|--------|--------|--------|--------|--------|
B|--------|--------|--------|--------|--------|--------|--------|--------|--------|
G|--------|--------|--------|--------|--------|--------|--------|--------|--------|
D|--------|--------|--------|--------|--------|--------|--------|--------|--------|
A|--------|--------|--------|--------|--------|--------|--------|--------|--------|
E|--------|--------|--------|--------|--------|--------|--------|--------|--------|


E|--------|--------|--------|--------|--------|--------|--------|--------|--------|
B|--------|--------|--------|--------|--------|--------|--------|--------|--------|
G|--------|--------|--------|--------|--------|--------|--------|--------|--------|
D|--------|--------|--------|--------|--------|--------|--------|--------|--------|
A|--------|--------|--------|--------|--------|--------|--------|--------|--------|
E|--------|--------|--------|--------|--------|--------|--------|--------|--------|


E|--------|--------|--------|--------|--------|--------|--------|--------|--------|
B|--------|--------|--------|--------|--------|--------|--------|--------|--------|
G|--------|--------|--------|--------|--------|--------|--------|--------|--------|
D|--------|--------|--------|--------|--------|--------|--------|--------|--------|
A|--------|--------|--------|--------|--------|--------|--------|--------|--------|
E|--------|--------|--------|--------|--------|--------|--------|--------|--------|


E|--------|--------|--------|--------|--------|--------|--------|--------|--------|
B|--------|--------|--------|--------|--------|--------|--------|--------|--------|
G|--------|--------|--------|--------|--------|--------|--------|--------|--------|
D|--------|--------|--------|--------|--------|--------|--------|--------|--------|
A|--------|--------|--------|--------|--------|--------|--------|--------|--------|
E|--------|--------|--------|--------|--------|--------|--------|--------|--------|


E|--------|--------|--------|--------|--------|--------|--------|--------|--------|
B|--------|--------|--------|--------|--------|--------|--------|--------|--------|
G|--------|--------|--------|--------|--------|--------|--------|--------|--------|
D|--------|--------|--------|--------|--------|--------|--------|--------|--------|
A|--------|--------|--------|--------|--------|--------|--------|--------|--------|
E|--------|--------|--------|--------|--------|--------|--------|--------|--------|


E|--------|--------|--------|--------|--------|--------|--------|--------|--------|
B|--------|--------|--------|--------|--------|--------|--------|--------|--------|
G|--------|--------|--------|--------|--------|--------|--------|--------|--------|
D|--------|--------|--------|--------|--------|--------|--------|--------|--------|
A|--------|--------|--------|--------|--------|--------|--------|--------|--------|
E|--------|--------|--------|--------|--------|--------|--------|--------|--------|


E|--------|--------|--------|--------|--------|--------|--------|--------|--------|
B|--------|--------|--------|--------|--------|--------|--------|--------|--------|
G|--------|--------|--------|--------|--------|--------|--------|--------|--------|
D|--------|--------|--------|--------|--------|--------|--------|--------|--------|
A|--------|--------|--------|--------|--------|--------|--------|--------|--------|
E|--------|--------|--------|--------|--------|--------|--------|--------|--------|


E|--------|--------|--------|--------|--------|--------|
B|--------|--------|--------|--------|--------|--------|
G|--------|--------|--------|--------|--------|--------|
D|--------|--------|--------|--------|--------|--------|
A|--------|--------|--------|--------|--------|--------|
E|--------|--------|--------|--------|--------|--------|





Track 4: Piano

E|--------|--------|--------|--------|--------|--------|--------|--------|--------|
B|--------|--------|--------|--------|--------|--------|--------|--------|--------|
G|--------|--------|--------|--------|--------|--------|--------|--------|--------|
D|--------|--------|--------|--------|--------|--------|--------|--------|--------|
A|--------|--------|--------|--------|--------|--------|--------|--------|--------|
E|--------|--------|--------|--------|--------|--------|--------|--------|--------|


E|--------|--------|--------|--------|--------|--------|--------|--------|--------|
B|--------|--------|--------|--------|--------|--------|--------|--------|--------|
G|--------|--------|--------|--------|--------|--------|--------|--------|--------|
D|--------|--------|--------|--------|--------|--------|--------|--------|--------|
A|--------|--------|--------|--------|--------|--------|--------|--------|--------|
E|--------|--------|--------|--------|--------|--------|--------|--------|--------|


E|--------|--------|--------|--------|--------|--------|--------|--------|--------|
B|--------|--------|--------|--------|--------|--------|--------|--------|--------|
G|--------|--------|--------|--------|--------|--------|--------|--------|--------|
D|--------|--------|--------|--------|--------|--------|--------|--------|--------|
A|--------|--------|--------|--------|--------|--------|--------|--------|--------|
E|--------|--------|--------|--------|--------|--------|--------|--------|--------|


E|--------|--------|--------|--------|--------|-12----12----|-10----7----8----|-8----------7----|
B|--------|--------|--------|--------|--------|-------------|-----------------|-----------------|
G|--------|--------|--------|--------|--------|-9-----9-----|-----------------|-----------------|
D|--------|--------|--------|--------|--------|-------------|-----------------|-----------------|
A|--------|--------|--------|--------|--------|-------------|-----------------|-----------------|
E|--------|--------|--------|--------|--------|-------------|-----------------|-----------------|


E|-8----7----5----3----|-12----12----|-10----7-----|-8------|--------|--------|--------|
B|---------------------|-------------|-------------|--------|--------|--------|--------|
G|---------------------|-9-----9-----|-------------|--------|--------|--------|--------|
D|---------------------|-------------|-------------|--------|--------|--------|--------|
A|---------------------|-------------|-------------|--------|--------|--------|--------|
E|---------------------|-------------|-------------|--------|--------|--------|--------|


E|--------|--------|--------|--------|--------|--------|--------|--------|--------|
B|--------|--------|--------|--------|--------|--------|--------|--------|--------|
G|--------|--------|--------|--------|--------|--------|--------|--------|--------|
D|--------|--------|--------|--------|--------|--------|--------|--------|--------|
A|--------|--------|--------|--------|--------|--------|--------|--------|--------|
E|--------|--------|--------|--------|--------|--------|--------|--------|--------|


E|--------|-12----12----|-10----7----8----|-8----------7----|-8----7----5----3----|
B|--------|-------------|-----------------|-----------------|---------------------|
G|--------|-9-----9-----|-----------------|-----------------|---------------------|
D|--------|-------------|-----------------|-----------------|---------------------|
A|--------|-------------|-----------------|-----------------|---------------------|
E|--------|-------------|-----------------|-----------------|---------------------|


E|-12----12----|-10----7-----|-8------|--------|--------|--------|--------|--------|
B|-------------|-------------|--------|--------|--------|--------|--------|--------|
G|-9-----9-----|-------------|--------|--------|--------|--------|--------|--------|
D|-------------|-------------|--------|--------|--------|--------|--------|--------|
A|-------------|-------------|--------|--------|--------|--------|--------|--------|
E|-------------|-------------|--------|--------|--------|--------|--------|--------|


E|--------|--------|--------|--------|--------|--------|--------|--------|--------|
B|--------|--------|--------|--------|--------|--------|--------|--------|--------|
G|--------|--------|--------|--------|--------|--------|--------|--------|--------|
D|--------|--------|--------|--------|--------|--------|--------|--------|--------|
A|--------|--------|--------|--------|--------|--------|--------|--------|--------|
E|--------|--------|--------|--------|--------|--------|--------|--------|--------|


E|--------|--------|--------|-12----12----|-10----7----8----|-8----------7----|-8----7----5----3----|
B|--------|--------|--------|-------------|-----------------|-----------------|---------------------|
G|--------|--------|--------|-9-----9-----|-----------------|-----------------|---------------------|
D|--------|--------|--------|-------------|-----------------|-----------------|---------------------|
A|--------|--------|--------|-------------|-----------------|-----------------|---------------------|
E|--------|--------|--------|-------------|-----------------|-----------------|---------------------|


E|-12----12----|-10----7----8----|-8----------7----|-8----7----5----3----|-12----12----|
B|-------------|-----------------|-----------------|---------------------|-------------|
G|-9-----9-----|-----------------|-----------------|---------------------|-9-----9-----|
D|-------------|-----------------|-----------------|---------------------|-------------|
A|-------------|-----------------|-----------------|---------------------|-------------|
E|-------------|-----------------|-----------------|---------------------|-------------|


E|-10----7----8----|-8----------7----|-8----7----5----3----|-12----12----|-10----7----8----|
B|-----------------|-----------------|---------------------|-------------|-----------------|
G|-----------------|-----------------|---------------------|-9-----9-----|-----------------|
D|-----------------|-----------------|---------------------|-------------|-----------------|
A|-----------------|-----------------|---------------------|-------------|-----------------|
E|-----------------|-----------------|---------------------|-------------|-----------------|


E|-8----------7----|-8----7----5----3----|--------|--------|--------|--------|--------|
B|-----------------|---------------------|--------|--------|--------|--------|--------|
G|-----------------|---------------------|--------|--------|--------|--------|--------|
D|-----------------|---------------------|--------|--------|--------|--------|--------|
A|-----------------|---------------------|--------|--------|--------|--------|--------|
E|-----------------|---------------------|--------|--------|--------|--------|--------|


E|--------|--------|--------|--------|--------|--------|--------|--------|--------|
B|--------|--------|--------|--------|--------|--------|--------|--------|--------|
G|--------|--------|--------|--------|--------|--------|--------|--------|--------|
D|--------|--------|--------|--------|--------|--------|--------|--------|--------|
A|--------|--------|--------|--------|--------|--------|--------|--------|--------|
E|--------|--------|--------|--------|--------|--------|--------|--------|--------|


E|--------|--------|--------|--------|--------|--------|--------|--------|--------|
B|--------|--------|--------|--------|--------|--------|--------|--------|--------|
G|--------|--------|--------|--------|--------|--------|--------|--------|--------|
D|--------|--------|--------|--------|--------|--------|--------|--------|--------|
A|--------|--------|--------|--------|--------|--------|--------|--------|--------|
E|--------|--------|--------|--------|--------|--------|--------|--------|--------|


E|--------|--------|--------|--------|--------|--------|--------|--------|--------|
B|--------|--------|--------|--------|--------|--------|--------|--------|--------|
G|--------|--------|--------|--------|--------|--------|--------|--------|--------|
D|--------|--------|--------|--------|--------|--------|--------|--------|--------|
A|--------|--------|--------|--------|--------|--------|--------|--------|--------|
E|--------|--------|--------|--------|--------|--------|--------|--------|--------|


E|--------|--------|--------|--------|
B|--------|--------|--------|--------|
G|--------|--------|--------|--------|
D|--------|--------|--------|--------|
A|--------|--------|--------|--------|
E|--------|--------|--------|--------|





Track 5: Untitled

G|--------|--------|--------|--------|--------|--------|--------|--------|--------|
D|--------|--------|--------|--------|--------|--------|--------|--------|--------|
A|--------|--------|--------|--------|--------|--------|--------|--------|--------|
E|--------|--------|--------|--------|--------|--------|--------|--------|--------|


G|--------|--------|--------|--------|--------|--------|--------|--------|--------|
D|--------|--------|--------|--------|--------|--------|--------|--------|--------|
A|--------|--------|--------|--------|--------|--------|--------|--------|--------|
E|--------|--------|--------|--------|--------|--------|--------|--------|--------|


G|--------|--------|--------|--------|--------|--------|--------|--------|--------|
D|--------|--------|--------|--------|--------|--------|--------|--------|--------|
A|--------|--------|--------|--------|--------|--------|--------|--------|--------|
E|--------|--------|--------|--------|--------|--------|--------|--------|--------|


G|--------|--------|--------|--------|--------|--------|--------|--------|--------|
D|--------|--------|--------|--------|--------|--------|--------|--------|--------|
A|--------|--------|--------|--------|--------|--------|--------|--------|--------|
E|--------|--------|--------|--------|--------|--------|--------|--------|--------|


G|--------|--------|--------|--------|--------|--------|--------|--------|--------|
D|--------|--------|--------|--------|--------|--------|--------|--------|--------|
A|--------|--------|--------|--------|--------|--------|--------|--------|--------|
E|--------|--------|--------|--------|--------|--------|--------|--------|--------|


G|--------|--------|--------|--------|--------|--------|--------|--------|--------|
D|--------|--------|--------|--------|--------|--------|--------|--------|--------|
A|--------|--------|--------|--------|--------|--------|--------|--------|--------|
E|--------|--------|--------|--------|--------|--------|--------|--------|--------|


G|--------|--------|--------|--------|--------|--------|--------|--------|--------|
D|--------|--------|--------|--------|--------|--------|--------|--------|--------|
A|--------|--------|--------|--------|--------|--------|--------|--------|--------|
E|--------|--------|--------|--------|--------|--------|--------|--------|--------|


G|--------|--------|--------|--------|--------|--------|--------|--------|--------|
D|--------|--------|--------|--------|--------|--------|--------|--------|--------|
A|--------|--------|--------|--------|--------|--------|--------|--------|--------|
E|--------|--------|--------|--------|--------|--------|--------|--------|--------|


G|--------|--------|--------|--------|--------|--------|--------|--------|--------|
D|--------|--------|--------|--------|--------|--------|--------|--------|--------|
A|--------|--------|--------|--------|--------|--------|--------|--------|--------|
E|--------|--------|--------|--------|--------|--------|--------|--------|--------|


G|--------|--------|--------|--------|--------|--------|--------|--------|--------|
D|--------|--------|--------|--------|--------|--------|--------|--------|--------|
A|--------|--------|--------|--------|--------|--------|--------|--------|--------|
E|--------|--------|--------|--------|--------|--------|--------|--------|--------|


G|--------|--------|--------|--------|--------|--------|--------|--------|--------|
D|--------|--------|--------|--------|--------|--------|--------|--------|--------|
A|--------|--------|--------|--------|--------|--------|--------|--------|--------|
E|--------|--------|--------|--------|--------|--------|--------|--------|--------|


G|--------|--------|--------|--------|--------|--------|--------|--------|--------|
D|--------|--------|--------|--------|--------|--------|--------|--------|--------|
A|--------|--------|--------|--------|--------|--------|--------|--------|--------|
E|--------|--------|--------|--------|--------|--------|--------|--------|--------|


G|--------|--------|--------|--------|--------|--------|--------|--------|--------|
D|--------|--------|--------|--------|--------|--------|--------|--------|--------|
A|--------|--------|--------|--------|--------|--------|--------|--------|--------|
E|--------|--------|--------|--------|--------|--------|--------|--------|--------|


G|--------|--------|--------|--------|--------|--------|--------|--------|--------|
D|--------|--------|--------|--------|--------|--------|--------|--------|--------|
A|--------|--------|--------|--------|--------|--------|--------|--------|--------|
E|--------|--------|--------|--------|--------|--------|--------|--------|--------|


G|--------|--------|
D|--------|--------|
A|--------|--------|
E|--------|--------|