Menu:

 

Search:

 

alkaline trio - the poison:

 



Title: The Poison
Artist: 
Album: Crimson
Author: Alkaline Trio


Track 1: Lead Guitar

E|---------------------------------|---------------------------------|---------------------------------|
B|---------6---7---6---5-----------|---------6---7---6---5-----------|---------6---7---6---5-----------|
G|-4---7-------------------7---6---|-4---7-------------------7---7---|-4---7-------------------7---6---|
D|---------------------------------|---------------------------------|---------------------------------|
A|---------------------------------|---------------------------------|---------------------------------|
E|---------------------------------|---------------------------------|---------------------------------|


E|---------------------------------|--------|--------|--------|--------|--------|--------|
B|---------6---7---6---5-----------|--------|--------|--------|--------|--------|--------|
G|-4---7-------------------7---6---|-4------|--------|--------|--------|--------|--------|
D|---------------------------------|--------|--------|--------|--------|--------|--------|
A|---------------------------------|--------|--------|--------|--------|--------|--------|
E|---------------------------------|--------|--------|--------|--------|--------|--------|


E|--------|--------|--------|--------|--------|--------|--------|--------|--------|
B|--------|--------|--------|--------|--------|--------|--------|--------|--------|
G|--------|--------|--------|--------|--------|--------|--------|--------|--------|
D|--------|--------|--------|--------|--------|--------|--------|--------|--------|
A|--------|--------|--------|--------|--------|--------|--------|--------|--------|
E|--------|--------|--------|--------|--------|--------|--------|--------|--------|


E|--------|--------|---------------------------------|---------------------------------|
B|--------|--------|---------6---7---6---5-----------|---------6---7---6---5-----------|
G|--------|--------|-4---7-------------------7---6---|-4---7-------------------7---7---|
D|--------|--------|---------------------------------|---------------------------------|
A|--------|--------|---------------------------------|---------------------------------|
E|--------|--------|---------------------------------|---------------------------------|


E|---------------------------------|---------------------------------|--------|--------|
B|---------6---7---6---5-----------|---------6---7---6---5-----------|--------|--------|
G|-4---7-------------------7---6---|-4---7-------------------7---6---|-4------|--------|
D|---------------------------------|---------------------------------|--------|--------|
A|---------------------------------|---------------------------------|--------|--------|
E|---------------------------------|---------------------------------|--------|--------|


E|--------|--------|---------------------------------|---------------------------------|
B|--------|--------|---------------------------------|---------------------------------|
G|--------|--------|-4---4---4---4---2---2---2---2---|---------------------------------|
D|--------|--------|-4---4---4---4---2---2---2---2---|-4---4---4---4---5---5---5---5---|
A|--------|--------|-2---2---2---2---0---0---0---0---|-4---4---4---4---5---5---5---5---|
E|--------|--------|---------------------------------|-2---2---2---2---3---3---3---3---|


E|---------------------------------|---------------------------------|---------------------------------|
B|---------------------------------|---------------------------------|---------------------------------|
G|-4---4---4---4---2---2---2---2---|---------------------------------|---------------------------------|
D|-4---4---4---4---2---2---2---2---|-4---4---4---4---4---4---4---4---|-5---5---5---5---5---5---5---5---|
A|-2---2---2---2---0---0---0---0---|-4---4---4---4---4---4---4---4---|-5---5---5---5---5---5---5---5---|
E|---------------------------------|-2---2---2---2---2---2---2---2---|-3---3---3---3---3---3---3---3---|


E|---------------------------------|---------------------------------|---------------------------------|
B|---------------------------------|---------------------------------|---------------------------------|
G|-7---7---7---7-------------------|---------------------------------|-7---7---7---7-------------------|
D|-7---7---7---7---7---7---7---7---|-5---5---5---5---5---5---5---5---|-7---7---7---7---7---7---7---7---|
A|-5---5---5---5---7---7---7---7---|-5---5---5---5---5---5---5---5---|-5---5---5---5---7---7---7---7---|
E|-----------------5---5---5---5---|-3---3---3---3---3---3---3---3---|-----------------5---5---5---5---|


E|---------------------------------|---------------------------------|---------------------------------|
B|---------------------------------|---------------------------------|---------------------------------|
G|---------------------------------|-7---7---7---7-------------------|---------------------------------|
D|-5---5---5---5---5---5---5---5---|-7---7---7---7---7---7---7---7---|-5---5---5---5---5---5---5---5---|
A|-5---5---5---5---5---5---5---5---|-5---5---5---5---7---7---7---7---|-5---5---5---5---5---5---5---5---|
E|-3---3---3---3---3---3---3---3---|-----------------5---5---5---5---|-3---3---3---3---3---3---3---3---|


E|---------------------------------|---------------------------------|---------------------------------|
B|---------------------------------|---------------------------------|---------------------------------|
G|---------------------------------|---------------------------------|-4---4---4---4---7---7---7---7---|
D|-4---4---4---4---4---4---4---4---|-4---4---4---4---4---4---4---4---|-4---4---4---4---7---7---7---7---|
A|-4---4---4---4---4---4---4---4---|-4---4---4---4---4---4---4---4---|-2---2---2---2---5---5---5---5---|
E|-2---2---2---2---2---2---2---2---|-2---2---2---2---2---2---2---2---|---------------------------------|


E|---------------------------------|---------------------------------|---------------------------------|
B|---------------------------------|---------------------------------|---------------------------------|
G|---------------------------------|-4---4---4---4---7---7---7---7---|---------------------------------|
D|-5---5---5---5---7---7---7---7---|-4---4---4---4---7---7---7---7---|-5---5---5---5---7---7---7---7---|
A|-5---5---5---5---7---7---7---7---|-2---2---2---2---5---5---5---5---|-5---5---5---5---7---7---7---7---|
E|-3---3---3---3---5---5---5---5---|---------------------------------|-3---3---3---3---5---5---5---5---|


E|---------------------------------|---------------------------------|---------------------------------|
B|---------------------------------|---------------------------------|---------------------------------|
G|-4---4---4---4---7---7---7---7---|---------------------------------|-4---4---4---4---7---7---7---7---|
D|-4---4---4---4---7---7---7---7---|-5---5---5---5---7---7---7---7---|-4---4---4---4---7---7---7---7---|
A|-2---2---2---2---5---5---5---5---|-5---5---5---5---7---7---7---7---|-2---2---2---2---5---5---5---5---|
E|---------------------------------|-3---3---3---3---5---5---5---5---|---------------------------------|


E|---------------------------------|---------------------------------|---------------------------------|
B|---------------------------------|---------------------------------|---------------------------------|
G|---------------------------------|---------------------------------|-7---7---7---7-------------------|
D|-4---4---4---4---4---4---4---4---|-5---5---5---5---5---5---5---5---|-7---7---7---7---7---7---7---7---|
A|-4---4---4---4---4---4---4---4---|-5---5---5---5---5---5---5---5---|-5---5---5---5---7---7---7---7---|
E|-2---2---2---2---2---2---2---2---|-3---3---3---3---3---3---3---3---|-----------------5---5---5---5---|


E|---------------------------------|---------------------------------|---------------------------------|
B|---------------------------------|---------------------------------|---------------------------------|
G|---------------------------------|-7---7---7---7-------------------|---------------------------------|
D|-5---5---5---5---5---5---5---5---|-7---7---7---7---7---7---7---7---|-5---5---5---5---5---5---5---5---|
A|-5---5---5---5---5---5---5---5---|-5---5---5---5---7---7---7---7---|-5---5---5---5---5---5---5---5---|
E|-3---3---3---3---3---3---3---3---|-----------------5---5---5---5---|-3---3---3---3---3---3---3---3---|


E|---------------------------------|---------------------------------|---------------------------------|
B|---------------------------------|---------------------------------|---------------------------------|
G|-7---7---7---7-------------------|---------------------------------|---------------------------------|
D|-7---7---7---7---7---7---7---7---|-5---5---5---5---5---5---5---5---|-4---4---4---4---4---4---4---4---|
A|-5---5---5---5---7---7---7---7---|-5---5---5---5---5---5---5---5---|-4---4---4---4---4---4---4---4---|
E|-----------------5---5---5---5---|-3---3---3---3---3---3---3---3---|-2---2---2---2---2---2---2---2---|


E|---------------------------------|---------------------------------|---------------------------------|
B|---------------------------------|---------6---7---6---5-----------|---------6---7---6---5-----------|
G|---------------------------------|-4---7-------------------7---6---|-4---7-------------------7---6---|
D|-4---4---4---4---4---4---4---4---|---------------------------------|---------------------------------|
A|-4---4---4---4---4---4---4---4---|---------------------------------|---------------------------------|
E|-2---2---2---2---2---2---2---2---|---------------------------------|---------------------------------|


E|---------------------------------|---------------------------------|---------------------------------|
B|---------6---7---6---5-----------|---------6---7---6---5-----------|---------6---7---6---5-----------|
G|-4---7-------------------7---6---|-4---7-------------------7---6---|-4---7-------------------7---6---|
D|---------------------------------|---------------------------------|---------------------------------|
A|---------------------------------|---------------------------------|---------------------------------|
E|---------------------------------|---------------------------------|---------------------------------|


E|---------------------------------|---------------------------------|-------------|
B|---------6---7---6---5-----------|---------6---7---6---5-----------|-------------|
G|-4---7-------------------7---6---|-4---7-------------------7---6---|-4-----6-----|
D|---------------------------------|---------------------------------|-------------|
A|---------------------------------|---------------------------------|-------------|
E|---------------------------------|---------------------------------|-------------|


E|--------|--------|--------|--------|
B|--------|--------|--------|--------|
G|-7------|-7------|-7------|-7------|
D|--------|--------|--------|--------|
A|--------|--------|--------|--------|
E|--------|--------|--------|--------|





Track 2: Rhythm Guitar

E|---------------------------------|---------------------------------|---------------------------------|
B|---------------------------------|---------------------------------|---------------------------------|
G|---------------------------------|---------------------------------|---------------------------------|
D|-4---4---4---4---4---4---4---4---|-4---4---4---4---4---4---4-------|-4---4---4---4---4---4---4---4---|
A|-2---2---2---2---2---2---2---2---|-2---2---2---2---2---2---2-------|-2---2---2---2---2---2---2---2---|
E|---------------------------------|---------------------------------|---------------------------------|


E|---------------------------------|---------------------------------|---------------------------------|
B|---------------------------------|---------------------------------|---------------------------------|
G|---------------------------------|-4---4---4---4---2---2---2---2---|---------------------------------|
D|-4---4---4---4---4---4---4---4---|-4---4---4---4---2---2---2---2---|-4---4---4---4---5---5---5---5---|
A|-2---2---2---2---2---2---2---2---|-2---2---2---2---0---0---0---0---|-4---4---4---4---5---5---5---5---|
E|---------------------------------|---------------------------------|-2---2---2---2---3---3---3---3---|


E|---------------------------------|---------------------------------|---------------------------------|
B|---------------------------------|---------------------------------|---------------------------------|
G|-4---4---4---4---2---2---2---2---|---------------------------------|-4---4---4---4---2---2---2---2---|
D|-4---4---4---4---2---2---2---2---|-4---4---4---4---5---5---5---5---|-4---4---4---4---2---2---2---2---|
A|-2---2---2---2---0---0---0---0---|-4---4---4---4---5---5---5---5---|-2---2---2---2---0---0---0---0---|
E|---------------------------------|-2---2---2---2---3---3---3---3---|---------------------------------|


E|---------------------------------|---------------------------------|---------------------------------|
B|---------------------------------|---------------------------------|---------------------------------|
G|---------------------------------|-4---4---4---4---2---2---2---2---|---------------------------------|
D|-4---4---4---4---5---5---5---5---|-4---4---4---4---2---2---2---2---|-4---4---4---4---4---4---4---4---|
A|-4---4---4---4---5---5---5---5---|-2---2---2---2---0---0---0---0---|-4---4---4---4---4---4---4---4---|
E|-2---2---2---2---3---3---3---3---|---------------------------------|-2---2---2---2---2---2---2---2---|


E|---------------------------------|---------------------------------|---------------------------------|
B|---------------------------------|---------------------------------|---------------------------------|
G|---------------------------------|-7---7---7---7-------------------|---------------------------------|
D|-5---5---5---5---5---5---5---5---|-7---7---7---7---7---7---7---7---|-5---5---5---5---5---5---5---5---|
A|-5---5---5---5---5---5---5---5---|-5---5---5---5---7---7---7---7---|-5---5---5---5---5---5---5---5---|
E|-3---3---3---3---3---3---3---3---|-----------------5---5---5---5---|-3---3---3---3---3---3---3---3---|


E|---------------------------------|---------------------------------|---------------------------------|
B|---------------------------------|---------------------------------|---------------------------------|
G|-7---7---7---7-------------------|---------------------------------|-7---7---7---7-------------------|
D|-7---7---7---7---7---7---7---7---|-5---5---5---5---5---5---5---5---|-7---7---7---7---7---7---7---7---|
A|-5---5---5---5---7---7---7---7---|-5---5---5---5---5---5---5---5---|-5---5---5---5---7---7---7---7---|
E|-----------------5---5---5---5---|-3---3---3---3---3---3---3---3---|-----------------5---5---5---5---|


E|---------------------------------|---------------------------------|---------------------------------|
B|---------------------------------|---------------------------------|---------------------------------|
G|---------------------------------|---------------------------------|---------------------------------|
D|-5---5---5---5---5---5---5---5---|-4---4---4---4---4---4---4---4---|-4---4---4---4---4---4---4---4---|
A|-5---5---5---5---5---5---5---5---|-4---4---4---4---4---4---4---4---|-4---4---4---4---4---4---4---4---|
E|-3---3---3---3---3---3---3---3---|-2---2---2---2---2---2---2---2---|-2---2---2---2---2---2---2---2---|


E|---------------------------------|---------------------------------|---------------------------------|
B|---------------------------------|---------------------------------|---------------------------------|
G|---------------------------------|---------------------------------|---------------------------------|
D|-4---4---4---4---4---4---4---4---|-4---4---4---4---4---4---4-------|-4---4---4---4---4---4---4---4---|
A|-2---2---2---2---2---2---2---2---|-2---2---2---2---2---2---2-------|-2---2---2---2---2---2---2---2---|
E|---------------------------------|---------------------------------|---------------------------------|


E|---------------------------------|---------------------------------|---------------------------------|
B|---------------------------------|---------------------------------|---------------------------------|
G|---------------------------------|-4---4---4---4---2---2---2---2---|---------------------------------|
D|-4---4---4---4---4---4---4---4---|-4---4---4---4---2---2---2---2---|-4---4---4---4---5---5---5---5---|
A|-2---2---2---2---2---2---2---2---|-2---2---2---2---0---0---0---0---|-4---4---4---4---5---5---5---5---|
E|---------------------------------|---------------------------------|-2---2---2---2---3---3---3---3---|


E|---------------------------------|---------------------------------|--------|--------|
B|---------------------------------|---------------------------------|--------|--------|
G|-4---4---4---4---2---2---2---2---|---------------------------------|--------|--------|
D|-4---4---4---4---2---2---2---2---|-4---4---4---4---5---5---5---5---|--------|--------|
A|-2---2---2---2---0---0---0---0---|-4---4---4---4---5---5---5---5---|--------|--------|
E|---------------------------------|-2---2---2---2---3---3---3---3---|--------|--------|


E|--------|--------|--------|--------|--------|--------|--------|--------|--------|
B|--------|--------|--------|--------|--------|--------|--------|--------|--------|
G|--------|--------|--------|--------|--------|--------|--------|--------|--------|
D|--------|--------|--------|--------|--------|--------|--------|--------|--------|
A|--------|--------|--------|--------|--------|--------|--------|--------|--------|
E|--------|--------|--------|--------|--------|--------|--------|--------|--------|


E|--------|--------|--------|--------|--------|--------|--------|--------|--------|
B|--------|--------|--------|--------|--------|--------|--------|--------|--------|
G|--------|--------|--------|--------|--------|--------|--------|--------|--------|
D|--------|--------|--------|--------|--------|--------|--------|--------|--------|
A|--------|--------|--------|--------|--------|--------|--------|--------|--------|
E|--------|--------|--------|--------|--------|--------|--------|--------|--------|


E|--------|--------|--------|--------|--------|--------|--------|--------|--------|
B|--------|--------|--------|--------|--------|--------|--------|--------|--------|
G|--------|--------|--------|--------|--------|--------|--------|--------|--------|
D|--------|--------|--------|--------|--------|--------|--------|--------|--------|
A|--------|--------|--------|--------|--------|--------|--------|--------|--------|
E|--------|--------|--------|--------|--------|--------|--------|--------|--------|


E|--------|---------------------------------|---------------------------------|---------------------------------|
B|--------|---------------------------------|---------------------------------|---------------------------------|
G|--------|-4---4---4---4---7---7---7---7---|---------------------------------|-4---4---4---4---7---7---7---7---|
D|--------|-4---4---4---4---7---7---7---7---|-5---5---5---5---7---7---7---7---|-4---4---4---4---7---7---7---7---|
A|--------|-2---2---2---2---5---5---5---5---|-5---5---5---5---7---7---7---7---|-2---2---2---2---5---5---5---5---|
E|--------|---------------------------------|-3---3---3---3---5---5---5---5---|---------------------------------|


E|---------------------------------|---------------------------------|---------------------------------|
B|---------------------------------|---------------------------------|---------------------------------|
G|---------------------------------|-4---4---4---4---7---7---7---7---|---------------------------------|
D|-5---5---5---5---7---7---7---7---|-4---4---4---4---7---7---7---7---|-5---5---5---5---7---7---7---7---|
A|-5---5---5---5---7---7---7---7---|-2---2---2---2---5---5---5---5---|-5---5---5---5---7---7---7---7---|
E|-3---3---3---3---5---5---5---5---|---------------------------------|-3---3---3---3---5---5---5---5---|


E|---------------------------------|-------------|--------|--------|--------|--------|
B|---------------------------------|-------------|--------|--------|--------|--------|
G|-4---4---4---4---7---7---7---7---|-------------|-4------|-4------|-4------|-4------|
D|-4---4---4---4---7---7---7---7---|-4-----5-----|-4------|-4------|-4------|-4------|
A|-2---2---2---2---5---5---5---5---|-4-----5-----|-2------|-2------|-2------|-2------|
E|---------------------------------|-2-----3-----|--------|--------|--------|--------|





Track 3: Untitled

G|--------|--------|--------|--------|--------|--------|--------|--------|--------|
D|--------|--------|--------|--------|--------|--------|--------|--------|--------|
A|--------|--------|--------|--------|--------|--------|--------|--------|--------|
E|--------|--------|--------|--------|--------|--------|--------|--------|--------|


G|--------|--------|--------|--------|--------|--------|--------|--------|--------|
D|--------|--------|--------|--------|--------|--------|--------|--------|--------|
A|--------|--------|--------|--------|--------|--------|--------|--------|--------|
E|--------|--------|--------|--------|--------|--------|--------|--------|--------|


G|--------|--------|--------|--------|--------|--------|--------|--------|--------|
D|--------|--------|--------|--------|--------|--------|--------|--------|--------|
A|--------|--------|--------|--------|--------|--------|--------|--------|--------|
E|--------|--------|--------|--------|--------|--------|--------|--------|--------|


G|--------|--------|--------|--------|--------|--------|--------|--------|--------|
D|--------|--------|--------|--------|--------|--------|--------|--------|--------|
A|--------|--------|--------|--------|--------|--------|--------|--------|--------|
E|--------|--------|--------|--------|--------|--------|--------|--------|--------|


G|--------|--------|--------|--------|--------|--------|--------|--------|--------|
D|--------|--------|--------|--------|--------|--------|--------|--------|--------|
A|--------|--------|--------|--------|--------|--------|--------|--------|--------|
E|--------|--------|--------|--------|--------|--------|--------|--------|--------|


G|--------|--------|--------|--------|--------|--------|--------|--------|--------|
D|--------|--------|--------|--------|--------|--------|--------|--------|--------|
A|--------|--------|--------|--------|--------|--------|--------|--------|--------|
E|--------|--------|--------|--------|--------|--------|--------|--------|--------|


G|--------|--------|--------|--------|--------|--------|--------|--------|--------|
D|--------|--------|--------|--------|--------|--------|--------|--------|--------|
A|--------|--------|--------|--------|--------|--------|--------|--------|--------|
E|--------|--------|--------|--------|--------|--------|--------|--------|--------|


G|--------|--------|--------|--------|--------|--------|--------|--------|
D|--------|--------|--------|--------|--------|--------|--------|--------|
A|--------|--------|--------|--------|--------|--------|--------|--------|
E|--------|--------|--------|--------|--------|--------|--------|--------|