Menu:

 

Search:

 

alkaline trio - sadie:

 



Title: Sadie
Artist: 
Album: BYO Split
Author: Alkaline Trio


Track 1: Overdrive Rhythm

E|---------------------------------|---------------------------------|---------------------------------|
B|---------------------------------|---------------------------------|---------------------------------|
G|---------------------------------|---------------------------------|---------------------------------|
D|-9---9---9---10--10--10--9---10--|-9---9---9---10--10--10--9---10--|-9---9---9---9---9---9---9---9---|
A|-10--10--10--10--10--10--10--10--|-0---0---0---0---0---0---0---0---|-7---7---7---7---7---7---7---7---|
E|---------------------------------|---------------------------------|---------------------------------|


E|---------------------------------|---------------------------------|---------------------------------|
B|---------------------------------|---------------------------------|---------------------------------|
G|---------------------------------|---------------------------------|---------------------------------|
D|-10--10--10--10--10--9---9---9---|-9---9---9---10--10--10--9---10--|-9---9---9---10--10--10--9---10--|
A|-7---7---7---7---7---7---7---7---|-10--10--10--10--10--10--10--10--|-0---0---0---0---0---0---0---0---|
E|---------------------------------|---------------------------------|---------------------------------|


E|---------------------------------|---------------------------------|---------------------------------|
B|---------------------------------|---------------------------------|---------------------------------|
G|---------------------------------|---------------------------------|---------------------------------|
D|-9---9---9---9---9---9---9---9---|-9---9---9---9---9---9---9---9---|-9---9---9---10--10--10--9---10--|
A|-7---7---7---7---7---7---7---7---|-7---7---7---7---7---7---7---7---|-10--10--10--10--10--10--10--10--|
E|---------------------------------|---------------------------------|---------------------------------|


E|---------------------------------|---------------------------------|---------------------------------|
B|---------------------------------|---------------------------------|---------------------------------|
G|---------------------------------|---------------------------------|---------------------------------|
D|-9---9---9---10--10--10--9---10--|-9---9---9---9---9---9---9---9---|-10--10--10--10--10--9---9---9---|
A|-0---0---0---0---0---0---0---0---|-7---7---7---7---7---7---7---7---|-7---7---7---7---7---7---7---7---|
E|---------------------------------|---------------------------------|---------------------------------|


E|---------------------------------|---------------------------------|---------------------------------|
B|---------------------------------|---------------------------------|---------------------------------|
G|---------------------------------|---------------------------------|---------------------------------|
D|-9---9---9---10--10--10--9---10--|-9---9---9---10--10--10--9---10--|-9---9---9---9---9---9---9---9---|
A|-10--10--10--10--10--10--10--10--|-0---0---0---0---0---0---0---0---|-7---7---7---7---7---7---7---7---|
E|---------------------------------|---------------------------------|---------------------------------|


E|---------------------------------|---------------------------------|---------------------------------|
B|---------------------------------|---------------------------------|---------------------------------|
G|---------------------------------|---------------------------------|---------------------------------|
D|-9---9---9---9---9---9---9---9---|-9---9---9---10--10--10--9---10--|-9---9---9---10--10--10--9---10--|
A|-7---7---7---7---7---7---7---7---|-10--10--10--10--10--10--10--10--|-0---0---0---0---0---0---0---0---|
E|---------------------------------|---------------------------------|---------------------------------|


E|---------------------------------|---------------------------------|---------------------------------|
B|---------------------------------|---------------------------------|---------------------------------|
G|---------------------------------|---------------------------------|---------------------------------|
D|-9---9---9---9---9---9---9---9---|-10--10--10--10--10--9---9---9---|-9---9---9---10--10--10--9---10--|
A|-7---7---7---7---7---7---7---7---|-7---7---7---7---7---7---7---7---|-10--10--10--10--10--10--10--10--|
E|---------------------------------|---------------------------------|---------------------------------|


E|---------------------------------|---------------------------------|---------------------------------|
B|---------------------------------|---------------------------------|---------------------------------|
G|---------------------------------|---------------------------------|---------------------------------|
D|-9---9---9---10--10--10--9---10--|-9---9---9---9---9---9---9---9---|-9---9---9---9---9---9---9---9---|
A|-0---0---0---0---0---0---0---0---|-7---7---7---7---7---7---7---7---|-7---7---7---7---7---7---7---7---|
E|---------------------------------|---------------------------------|---------------------------------|


E|---------------------------------|---------------------------------|---------------------------------|
B|---------------------------------|---------------------------------|---------------------------------|
G|---------------------------------|---------------------------------|---------------------------------|
D|-9---9---9---10--10--10--9---10--|-9---9---9---10--10--10--9---10--|-9---9---9---9---9---9---9---9---|
A|-10--10--10--10--10--10--10--10--|-0---0---0---0---0---0---0---0---|-7---7---7---7---7---7---7---7---|
E|---------------------------------|---------------------------------|---------------------------------|


E|---------------------------------|---------------------------------|---------------------------------|
B|---------------------------------|---------------------------------|---------------------------------|
G|---------------------------------|---------------------------------|---------------------------------|
D|-10--10--10--10--10--9---9---9---|-9---9---9---10--10--10--9---10--|-9---9---9---10--10--10--9---10--|
A|-7---7---7---7---7---7---7---7---|-10--10--10--10--10--10--10--10--|-0---0---0---0---0---0---0---0---|
E|---------------------------------|---------------------------------|---------------------------------|


E|---------------------------------|---------------------------------|---------------------------------|
B|---------------------------------|---------------------------------|---------------------------------|
G|---------------------------------|---------------------------------|-5---5---5---5---5---5---5---5---|
D|-9---9---9---9---9---9---9---9---|-9---9---9---9---9---9---9---9---|-5---5---5---5---5---5---5---5---|
A|-7---7---7---7---7---7---7---7---|-7---7---7---7---7---7---7---7---|-3---3---3---3---3---3---3---3---|
E|---------------------------------|---------------------------------|---------------------------------|


E|---------------------------------|--------|--------|--------|--------|--------|--------|
B|---------------------------------|--------|--------|--------|--------|--------|--------|
G|-5---5---5---5---5---5---5---5---|--------|--------|--------|--------|--------|--------|
D|-5---5---5---5---5---5---5---5---|--------|--------|--------|--------|--------|--------|
A|-3---3---3---3---3---3---3---3---|--------|--------|--------|--------|--------|--------|
E|---------------------------------|--------|--------|--------|--------|--------|--------|


E|--------|--------|--------|---------------------------------|---------------------------------|
B|--------|--------|--------|---------------------------------|---------------------------------|
G|--------|--------|--------|---------------------------------|---------------------------------|
D|--------|--------|--------|-9---9---9---10--10--10--9---10--|-9---9---9---10--10--10--9---10--|
A|--------|--------|--------|-10--10--10--10--10--10--10--10--|-0---0---0---0---0---0---0---0---|
E|--------|--------|--------|---------------------------------|---------------------------------|


E|---------------------------------|---------------------------------|---------------------------------|
B|---------------------------------|---------------------------------|---------------------------------|
G|---------------------------------|---------------------------------|---------------------------------|
D|-9---9---9---9---9---9---9---9---|-10--10--10--10--10--9---9---9---|-9---9---9---10--10--10--9---10--|
A|-7---7---7---7---7---7---7---7---|-7---7---7---7---7---7---7---7---|-10--10--10--10--10--10--10--10--|
E|---------------------------------|---------------------------------|---------------------------------|


E|---------------------------------|---------------------------------|---------------------------------|
B|---------------------------------|---------------------------------|---------------------------------|
G|---------------------------------|---------------------------------|---------------------------------|
D|-9---9---9---10--10--10--9---10--|-9---9---9---9---9---9---9---9---|-9---9---9---9---9---9---9---9---|
A|-0---0---0---0---0---0---0---0---|-7---7---7---7---7---7---7---7---|-7---7---7---7---7---7---7---7---|
E|---------------------------------|---------------------------------|---------------------------------|


E|---------------------------------|---------------------------------|---------------------------------|
B|---------------------------------|---------------------------------|---------------------------------|
G|---------------------------------|---------------------------------|---------------------------------|
D|-9---9---9---10--10--10--9---10--|-9---9---9---10--10--10--9---10--|-9---9---9---9---9---9---9---9---|
A|-10--10--10--10--10--10--10--10--|-0---0---0---0---0---0---0---0---|-7---7---7---7---7---7---7---7---|
E|---------------------------------|---------------------------------|---------------------------------|


E|---------------------------------|---------------------------------|---------------------------------|
B|---------------------------------|---------------------------------|---------------------------------|
G|---------------------------------|---------------------------------|---------------------------------|
D|-10--10--10--10--10--9---9---9---|-9---9---9---10--10--10--9---10--|-9---9---9---10--10--10--9---10--|
A|-7---7---7---7---7---7---7---7---|-10--10--10--10--10--10--10--10--|-0---0---0---0---0---0---0---0---|
E|---------------------------------|---------------------------------|---------------------------------|


E|---------------------------------|---------------------------------|---------------------------------|
B|---------------------------------|---------------------------------|---------------------------------|
G|---------------------------------|---------------------------------|---------------------------------|
D|-9---9---9---9---9---9---9---9---|-9---9---9---9---9---9---9---9---|-9---9---9---10--10--10--9---10--|
A|-7---7---7---7---7---7---7---7---|-7---7---7---7---7---7---7---7---|-10--10--10--10--10--10--10--10--|
E|---------------------------------|---------------------------------|---------------------------------|


E|---------------------------------|---------------------------------|---------------------------------|
B|---------------------------------|---------------------------------|---------------------------------|
G|---------------------------------|---------------------------------|---------------------------------|
D|-9---9---9---10--10--10--9---10--|-9---9---9---9---9---9---9---9---|-10--10--10--10--10--9---9---9---|
A|-0---0---0---0---0---0---0---0---|-7---7---7---7---7---7---7---7---|-7---7---7---7---7---7---7---7---|
E|---------------------------------|---------------------------------|---------------------------------|


E|---------------------------------|---------------------------------|---------------------------------|
B|---------------------------------|---------------------------------|---------------------------------|
G|---------------------------------|---------------------------------|---------------------------------|
D|-9---9---9---10--10--10--9---10--|-9---9---9---10--10--10--9---10--|-9---9---9---9---9---9---9---9---|
A|-10--10--10--10--10--10--10--10--|-0---0---0---0---0---0---0---0---|-7---7---7---7---7---7---7---7---|
E|---------------------------------|---------------------------------|---------------------------------|


E|---------------------------------|---------------------------------|---------------------------------|
B|---------------------------------|---------------------------------|---------------------------------|
G|---------------------------------|-5---5---5---5---5---5---5---5---|-5---5---5---5---5---5---5---5---|
D|-9---9---9---9---9---9---9---9---|-5---5---5---5---5---5---5---5---|-5---5---5---5---5---5---5---5---|
A|-7---7---7---7---7---7---7---7---|-3---3---3---3---3---3---3---3---|-3---3---3---3---3---3---3---3---|
E|---------------------------------|---------------------------------|---------------------------------|


E|--------|--------|--------|--------|--------|--------|--------|--------|--------|
B|--------|--------|--------|--------|--------|--------|--------|--------|--------|
G|--------|--------|--------|--------|--------|--------|--------|--------|--------|
D|--------|--------|--------|--------|--------|--------|--------|--------|--------|
A|--------|--------|--------|--------|--------|--------|--------|--------|--------|
E|--------|--------|--------|--------|--------|--------|--------|--------|--------|


E|--------|--------|--------|--------|--------|--------|--------|--------|--------|
B|--------|--------|--------|--------|--------|--------|--------|--------|--------|
G|--------|--------|--------|--------|--------|--------|--------|--------|--------|
D|--------|--------|--------|--------|--------|--------|--------|--------|--------|
A|--------|--------|--------|--------|--------|--------|--------|--------|--------|
E|--------|--------|--------|--------|--------|--------|--------|--------|--------|


E|--------|--------|--------|--------|--------|--------|--------|--------|--------|
B|--------|--------|--------|--------|--------|--------|--------|--------|--------|
G|--------|--------|--------|--------|--------|--------|--------|--------|--------|
D|--------|--------|--------|--------|--------|--------|--------|--------|--------|
A|--------|--------|--------|--------|--------|--------|--------|--------|--------|
E|--------|--------|--------|--------|--------|--------|--------|--------|--------|


E|--------|--------|--------|--------|--------|--------|--------|--------|--------|
B|--------|--------|--------|--------|--------|--------|--------|--------|--------|
G|--------|--------|--------|--------|--------|--------|--------|--------|--------|
D|--------|--------|--------|--------|--------|--------|--------|--------|--------|
A|--------|--------|--------|--------|--------|--------|--------|--------|--------|
E|--------|--------|--------|--------|--------|--------|--------|--------|--------|


E|--------|--------|--------|--------|--------|--------|--------|--------|--------|
B|--------|--------|--------|--------|--------|--------|--------|--------|--------|
G|--------|--------|--------|--------|--------|--------|--------|--------|--------|
D|--------|--------|--------|--------|--------|--------|--------|--------|--------|
A|--------|--------|--------|--------|--------|--------|--------|--------|--------|
E|--------|--------|--------|--------|--------|--------|--------|--------|--------|


E|--------|--------|--------|--------|--------|--------|--------|--------|--------|
B|--------|--------|--------|--------|--------|--------|--------|--------|--------|
G|--------|--------|--------|--------|--------|--------|--------|--------|--------|
D|--------|--------|--------|--------|--------|--------|--------|--------|--------|
A|--------|--------|--------|--------|--------|--------|--------|--------|--------|
E|--------|--------|--------|--------|--------|--------|--------|--------|--------|


E|--------|--------|--------|--------|--------|--------|--------|--------|--------|
B|--------|--------|--------|--------|--------|--------|--------|--------|--------|
G|--------|--------|--------|--------|--------|--------|--------|--------|--------|
D|--------|--------|--------|--------|--------|--------|--------|--------|--------|
A|--------|--------|--------|--------|--------|--------|--------|--------|--------|
E|--------|--------|--------|--------|--------|--------|--------|--------|--------|


E|--------|--------|--------|--------|---------------------------------|---------------------------------|
B|--------|--------|--------|--------|---------------------------------|---------------------------------|
G|--------|--------|--------|--------|---------------------------------|---------------------------------|
D|--------|--------|--------|--------|-9---9---9---10--10--10--9---10--|-9---9---9---10--10--10--9---10--|
A|--------|--------|--------|--------|-10--10--10--10--10--10--10--10--|-0---0---0---0---0---0---0---0---|
E|--------|--------|--------|--------|---------------------------------|---------------------------------|


E|---------------------------------|---------------------------------|---------------------------------|
B|---------------------------------|---------------------------------|---------------------------------|
G|---------------------------------|---------------------------------|---------------------------------|
D|-9---9---9---9---9---9---9---9---|-10--10--10--10--10--9---9---9---|-9---9---9---10--10--10--9---10--|
A|-7---7---7---7---7---7---7---7---|-7---7---7---7---7---7---7---7---|-10--10--10--10--10--10--10--10--|
E|---------------------------------|---------------------------------|---------------------------------|


E|---------------------------------|--------|--------|--------|--------|
B|---------------------------------|--------|--------|--------|--------|
G|---------------------------------|--------|--------|--------|--------|
D|-9---9---9---10--10--10--9---10--|-9------|-9------|-9------|-9------|
A|-0---0---0---0---0---0---0---0---|-7------|-7------|-7------|-7------|
E|---------------------------------|--------|--------|--------|--------|





Track 2: Distorted Lead

E|--------|--------|--------|--------|--------|--------|--------|---------------------------------|
B|--------|--------|--------|--------|--------|--------|--------|-------------8-------8-------8---|
G|--------|--------|--------|--------|--------|--------|--------|---------11--12--11--12--11--12--|
D|--------|--------|--------|--------|--------|--------|--------|---------------------------------|
A|--------|--------|--------|--------|--------|--------|--------|---------------------------------|
E|--------|--------|--------|--------|--------|--------|--------|---------------------------------|


E|---------------------------------|---------------------------------|--------|--------|
B|-----8-------8-------8-------8---|-----8-------8-------8-------8---|--------|--------|
G|-11--12--11--12--11--12--11--12--|-11--12--11--12--11--12--11--12--|--------|--------|
D|---------------------------------|---------------------------------|--------|--------|
A|---------------------------------|---------------------------------|--------|--------|
E|---------------------------------|---------------------------------|--------|--------|


E|--------|--------|--------|---------------------------------|---------------------------------|
B|--------|--------|--------|-------------8-------8-------8---|-----8-------8-------8-------8---|
G|--------|--------|--------|---------11--12--11--12--11--12--|-11--12--11--12--11--12--11--12--|
D|--------|--------|--------|---------------------------------|---------------------------------|
A|--------|--------|--------|---------------------------------|---------------------------------|
E|--------|--------|--------|---------------------------------|---------------------------------|


E|--------|--------|--------|--------|--------|--------|--------|--------|--------|
B|--------|--------|--------|--------|--------|--------|--------|--------|--------|
G|--------|--------|--------|--------|--------|--------|--------|--------|--------|
D|--------|--------|--------|--------|--------|--------|--------|--------|--------|
A|--------|--------|--------|--------|--------|--------|--------|--------|--------|
E|--------|--------|--------|--------|--------|--------|--------|--------|--------|


E|--------|---------------------------------|---------------------------------|--------|
B|--------|-------------8-------8-------8---|-----8-------8-------8-------8---|--------|
G|--------|---------11--12--11--12--11--12--|-11--12--11--12--11--12--11--12--|--------|
D|--------|---------------------------------|---------------------------------|--------|
A|--------|---------------------------------|---------------------------------|--------|
E|--------|---------------------------------|---------------------------------|--------|


E|--------|--------|---------------------------------|---------------------------------|
B|--------|--------|---------8---8---8---8---8---8---|-8---8---8---8---8---8---8---8---|
G|--------|--------|---------------------------------|---------------------------------|
D|--------|--------|---------------------------------|---------------------------------|
A|--------|--------|---------------------------------|---------------------------------|
E|--------|--------|---------------------------------|---------------------------------|


E|---------------------------------|--------|---------------------------------|--------|
B|-------------8---8---8---8---8---|--------|-------------8---8---8---8---8---|--------|
G|---------------------------------|--------|---------------------------------|--------|
D|---------------------------------|--------|---------------------------------|--------|
A|---------------------------------|--------|---------------------------------|--------|
E|---------------------------------|--------|---------------------------------|--------|


E|---------------------------------|--------|---------------------------------|--------|
B|-------------8---8---8---8---8---|--------|-------------8---8---8---8---8---|--------|
G|---------------------------------|--------|---------------------------------|--------|
D|---------------------------------|--------|---------------------------------|--------|
A|---------------------------------|--------|---------------------------------|--------|
E|---------------------------------|--------|---------------------------------|--------|


E|--------|--------|---------------------------------|------------------------------|
B|--------|--------|---------------------------------|------------------------------|
G|--------|--------|---------------------------------|------------------------------|
D|--------|--------|-----7---7---7---7---7---7---7---|-7----9---9---9---9---9---9---|
A|--------|--------|---------------------------------|------------------------------|
E|--------|--------|---------------------------------|------------------------------|


E|--------|---------------------------------|------------------------------|---------------------------------|
B|--------|---------------------------------|------------------------------|---------------------------------|
G|--------|---------------------------------|------------------------------|---------------------------------|
D|-10-----|-9---9---9---9---9---9---9---9---|-9---7---7---7---7---7----7---|-7---5---5---5---5---5---5---5---|
A|--------|---------------------------------|------------------------------|---------------------------------|
E|--------|---------------------------------|------------------------------|---------------------------------|


E|--------|---------------------------------|--------|--------|--------|--------|--------|
B|--------|-----8-------8-------8-------8---|--------|--------|--------|--------|--------|
G|--------|-11--12--11--12--11--12--11--12--|--------|--------|--------|--------|--------|
D|-5------|---------------------------------|--------|--------|--------|--------|--------|
A|--------|---------------------------------|--------|--------|--------|--------|--------|
E|--------|---------------------------------|--------|--------|--------|--------|--------|


E|--------|--------|--------|--------|--------|---------------------------------|---------------------------------|
B|--------|--------|--------|--------|--------|-------------8-------8-------8---|-----8-------8-------8-------8---|
G|--------|--------|--------|--------|--------|---------11--12--11--12--11--12--|-11--12--11--12--11--12--11--12--|
D|--------|--------|--------|--------|--------|---------------------------------|---------------------------------|
A|--------|--------|--------|--------|--------|---------------------------------|---------------------------------|
E|--------|--------|--------|--------|--------|---------------------------------|---------------------------------|


E|--------|--------|--------|---------------------------------|---------------------------------|
B|--------|--------|--------|---------8---8---8---8---8---8---|-8---8---8---8---8---8---8---8---|
G|--------|--------|--------|---------------------------------|---------------------------------|
D|--------|--------|--------|---------------------------------|---------------------------------|
A|--------|--------|--------|---------------------------------|---------------------------------|
E|--------|--------|--------|---------------------------------|---------------------------------|


E|---------------------------------|--------|---------------------------------|--------|
B|-------------8---8---8---8---8---|--------|-------------8---8---8---8---8---|--------|
G|---------------------------------|--------|---------------------------------|--------|
D|---------------------------------|--------|---------------------------------|--------|
A|---------------------------------|--------|---------------------------------|--------|
E|---------------------------------|--------|---------------------------------|--------|


E|---------------------------------|--------|---------------------------------|--------|
B|-------------8---8---8---8---8---|--------|-------------8---8---8---8---8---|--------|
G|---------------------------------|--------|---------------------------------|--------|
D|---------------------------------|--------|---------------------------------|--------|
A|---------------------------------|--------|---------------------------------|--------|
E|---------------------------------|--------|---------------------------------|--------|


E|---------------------------------|--------|---------------------------------|--------|
B|-------------8---8---8---8---8---|--------|-------------8---8---8---8---8---|--------|
G|---------------------------------|--------|---------------------------------|--------|
D|---------------------------------|--------|---------------------------------|--------|
A|---------------------------------|--------|---------------------------------|--------|
E|---------------------------------|--------|---------------------------------|--------|


E|---------------------------------|--------|---------------------------------|--------|
B|-------------8---8---8---8---8---|--------|-------------8---8---8---8---8---|--------|
G|---------------------------------|--------|---------------------------------|--------|
D|---------------------------------|--------|---------------------------------|--------|
A|---------------------------------|--------|---------------------------------|--------|
E|---------------------------------|--------|---------------------------------|--------|


E|--------|--------|--------|--------|--------|--------|--------|--------|--------|
B|--------|--------|--------|--------|--------|--------|--------|--------|--------|
G|--------|--------|--------|--------|--------|--------|--------|--------|--------|
D|--------|--------|--------|--------|--------|--------|--------|--------|--------|
A|--------|--------|--------|--------|--------|--------|--------|--------|--------|
E|--------|--------|--------|--------|--------|--------|--------|--------|--------|


E|--------|--------|--------|--------|--------|--------|--------|--------|---------------------------------|
B|--------|--------|--------|--------|--------|--------|--------|--------|-------------8-------8-------8---|
G|--------|--------|--------|--------|--------|--------|--------|--------|---------11--12--11--12--11--12--|
D|--------|--------|--------|--------|--------|--------|--------|--------|---------------------------------|
A|--------|--------|--------|--------|--------|--------|--------|--------|---------------------------------|
E|--------|--------|--------|--------|--------|--------|--------|--------|---------------------------------|


E|---------------------------------|--------|---------------------------------|--------|
B|-------------8---8---8---8---8---|--------|-------------8---8---8---8---8---|--------|
G|---------------------------------|--------|---------------------------------|--------|
D|---------------------------------|--------|---------------------------------|--------|
A|---------------------------------|--------|---------------------------------|--------|
E|---------------------------------|--------|---------------------------------|--------|


E|---------------------------------|--------|---------------------------------|--------|
B|-------------8---8---8---8---8---|--------|-------------8---8---8---8---8---|--------|
G|---------------------------------|--------|---------------------------------|--------|
D|---------------------------------|--------|---------------------------------|--------|
A|---------------------------------|--------|---------------------------------|--------|
E|---------------------------------|--------|---------------------------------|--------|


E|---------------------------------|--------|---------------------------------|--------|
B|-------------8---8---8---8---8---|--------|-------------8---8---8---8---8---|--------|
G|---------------------------------|--------|---------------------------------|--------|
D|---------------------------------|--------|---------------------------------|--------|
A|---------------------------------|--------|---------------------------------|--------|
E|---------------------------------|--------|---------------------------------|--------|


E|---------------------------------|--------|---------------------------------|--------|
B|-------------8---8---8---8---8---|--------|-------------8---8---8---8---8---|--------|
G|---------------------------------|--------|---------------------------------|--------|
D|---------------------------------|--------|---------------------------------|--------|
A|---------------------------------|--------|---------------------------------|--------|
E|---------------------------------|--------|---------------------------------|--------|


E|---------------------------------|--------|---------------------------------|--------|
B|-------------8---8---8---8---8---|--------|-------------8---8---8---8---8---|--------|
G|---------------------------------|--------|---------------------------------|--------|
D|---------------------------------|--------|---------------------------------|--------|
A|---------------------------------|--------|---------------------------------|--------|
E|---------------------------------|--------|---------------------------------|--------|


E|---------------------------------|--------|---------------------------------|--------|
B|-------------8---8---8---8---8---|--------|-------------8---8---8---8---8---|--------|
G|---------------------------------|--------|---------------------------------|--------|
D|---------------------------------|--------|---------------------------------|--------|
A|---------------------------------|--------|---------------------------------|--------|
E|---------------------------------|--------|---------------------------------|--------|


E|---------------------------------|---------------------------------|---------------------------------|
B|-15--15--15--15--13--13--13--13--|-12--12--12--12------------------|-15--15--15--15--13--13--13--13--|
G|---------------------------------|-----------------12--12--12--12--|---------------------------------|
D|---------------------------------|---------------------------------|---------------------------------|
A|---------------------------------|---------------------------------|---------------------------------|
E|---------------------------------|---------------------------------|---------------------------------|


E|---------------------------------|---------------------------------|---------------------------------|
B|-12--12--12--12--12--12--12--12--|-15--15--15--15--13--13--13--13--|-12--12--12--12------------------|
G|---------------------------------|---------------------------------|-----------------12--12--12--12--|
D|---------------------------------|---------------------------------|---------------------------------|
A|---------------------------------|---------------------------------|---------------------------------|
E|---------------------------------|---------------------------------|---------------------------------|


E|---------------------------------|---------------------------------|---------------------------------|
B|-15--15--15--15------------------|---------------------------------|-------------8-------8-------8---|
G|-----------------12--12--12--12--|-14--14--14--14--14--14--14--14--|-14--14--11--12--11--12--11--12--|
D|---------------------------------|---------------------------------|---------------------------------|
A|---------------------------------|---------------------------------|---------------------------------|
E|---------------------------------|---------------------------------|---------------------------------|


E|---------------------------------|---------------------------------|--------|--------|
B|-----8-------8-------8-------8---|-----8-------8-------8-------8---|--------|--------|
G|-11--12--11--12--11--12--11--12--|-11--12--11--12--11--12--11--12--|--------|--------|
D|---------------------------------|---------------------------------|--------|--------|
A|---------------------------------|---------------------------------|--------|--------|
E|---------------------------------|---------------------------------|--------|--------|


E|--------|--------|--------|--------|--------|--------|
B|--------|--------|--------|--------|--------|--------|
G|--------|--------|--------|--------|--------|--------|
D|--------|--------|--------|--------|--------|--------|
A|--------|--------|--------|--------|--------|--------|
E|--------|--------|--------|--------|--------|--------|





Track 3: Overdriven Lead

E|--------|--------|--------|--------|--------|--------|--------|--------|--------|
B|--------|--------|--------|--------|--------|--------|--------|--------|--------|
G|--------|--------|--------|--------|--------|--------|--------|--------|--------|
D|--------|--------|--------|--------|--------|--------|--------|--------|--------|
A|--------|--------|--------|--------|--------|--------|--------|--------|--------|
E|--------|--------|--------|--------|--------|--------|--------|--------|--------|


E|--------|--------|--------|--------|--------|--------|--------|--------|--------|
B|--------|--------|--------|--------|--------|--------|--------|--------|--------|
G|--------|--------|--------|--------|--------|--------|--------|--------|--------|
D|--------|--------|--------|--------|--------|--------|--------|--------|--------|
A|--------|--------|--------|--------|--------|--------|--------|--------|--------|
E|--------|--------|--------|--------|--------|--------|--------|--------|--------|


E|--------|--------|--------|--------|--------|--------|--------|---------------------------------|
B|--------|--------|--------|--------|--------|--------|--------|---------------------------------|
G|--------|--------|--------|--------|--------|--------|--------|---------------------------------|
D|--------|--------|--------|--------|--------|--------|-9------|-9---7---7---7---7---7---7---7---|
A|--------|--------|--------|--------|--------|--------|--------|---------------------------------|
E|--------|--------|--------|--------|--------|--------|--------|---------------------------------|


E|------------------------------|--------|--------|--------|--------|--------|--------|
B|------------------------------|--------|--------|--------|--------|--------|--------|
G|------------------------------|--------|--------|--------|--------|--------|--------|
D|-7----9---9---9---9---9---9---|-10-----|--------|--------|--------|--------|--------|
A|------------------------------|--------|--------|--------|--------|--------|--------|
E|------------------------------|--------|--------|--------|--------|--------|--------|


E|--------|--------|---------------------------------|--------|---------------------------------|
B|--------|--------|---------------------------------|--------|---------------------------------|
G|--------|-12-----|---------------------------------|-12-----|---------------------------------|
D|--------|--------|-12--12--12--10--10--10--9---10--|--------|-12--12--12--10--10--10--9---10--|
A|--------|--------|---------------------------------|--------|---------------------------------|
E|--------|--------|---------------------------------|--------|---------------------------------|


E|--------|---------------------------------|--------|---------------------------------|
B|--------|---------------------------------|--------|---------------------------------|
G|-12-----|---------------------------------|-12-----|---------------------------------|
D|--------|-12--12--12--10--10--10--9---10--|--------|-12--12--12--10--10--10--10--10--|
A|--------|---------------------------------|--------|---------------------------------|
E|--------|---------------------------------|--------|---------------------------------|


E|--------|--------|--------|--------|--------|--------|--------|--------|--------|
B|--------|--------|--------|--------|--------|--------|--------|--------|--------|
G|--------|--------|--------|--------|--------|--------|--------|--------|--------|
D|--------|--------|--------|--------|--------|--------|--------|--------|--------|
A|--------|--------|--------|--------|--------|--------|--------|--------|--------|
E|--------|--------|--------|--------|--------|--------|--------|--------|--------|


E|--------|--------|--------|--------|--------|--------|--------|--------|--------|
B|--------|--------|--------|--------|--------|--------|--------|--------|--------|
G|--------|--------|--------|--------|--------|--------|--------|--------|--------|
D|--------|--------|--------|--------|--------|--------|--------|--------|-9------|
A|--------|--------|--------|--------|--------|--------|--------|--------|--------|
E|--------|--------|--------|--------|--------|--------|--------|--------|--------|


E|---------------------------------|------------------------------|--------|--------|
B|---------------------------------|------------------------------|--------|--------|
G|---------------------------------|------------------------------|--------|--------|
D|-9---7---7---7---7---7---7---7---|-7----9---9---9---9---9---9---|-10-----|--------|
A|---------------------------------|------------------------------|--------|--------|
E|---------------------------------|------------------------------|--------|--------|


E|--------|--------|--------|--------|--------|--------|---------------------------------|
B|--------|--------|--------|--------|--------|--------|---------------------------------|
G|--------|--------|--------|--------|--------|-12-----|---------------------------------|
D|--------|--------|--------|--------|--------|--------|-12--12--12--10--10--10--9---10--|
A|--------|--------|--------|--------|--------|--------|---------------------------------|
E|--------|--------|--------|--------|--------|--------|---------------------------------|


E|--------|---------------------------------|--------|---------------------------------|
B|--------|---------------------------------|--------|---------------------------------|
G|-12-----|---------------------------------|-12-----|---------------------------------|
D|--------|-12--12--12--10--10--10--9---10--|--------|-12--12--12--10--10--10--9---10--|
A|--------|---------------------------------|--------|---------------------------------|
E|--------|---------------------------------|--------|---------------------------------|


E|--------|---------------------------------|--------|---------------------------------|
B|--------|---------------------------------|--------|---------------------------------|
G|-12-----|---------------------------------|-12-----|---------------------------------|
D|--------|-12--12--12--10--10--10--9---10--|--------|-12--12--12--10--10--10--9---10--|
A|--------|---------------------------------|--------|---------------------------------|
E|--------|---------------------------------|--------|---------------------------------|


E|--------|---------------------------------|--------|---------------------------------|
B|--------|---------------------------------|--------|---------------------------------|
G|-12-----|---------------------------------|-12-----|---------------------------------|
D|--------|-12--12--12--10--10--10--9---10--|--------|-12--12--12--10--10--10--9---10--|
A|--------|---------------------------------|--------|---------------------------------|
E|--------|---------------------------------|--------|---------------------------------|


E|--------|---------------------------------|--------|--------|---------------------------------|
B|--------|---------------------------------|--------|--------|---------------------------------|
G|-12-----|---------------------------------|--------|--------|-------------12--12--12----------|
D|--------|-12--12--12--10--10--10--10--10--|--------|--------|-12--12--12--------------12--12--|
A|--------|---------------------------------|--------|--------|---------------------------------|
E|--------|---------------------------------|--------|--------|---------------------------------|


E|--------|--------|--------|---------------------------------|---------------------------------|
B|--------|--------|--------|---------------------------------|---------------------------------|
G|--------|--------|--------|---------------------------------|---------------------------------|
D|-9------|-9------|-9------|-9---9---9---9---9---9---9---9---|-9---9---9---9---9---9---9---9---|
A|--------|--------|--------|---------------------------------|---------------------------------|
E|--------|--------|--------|---------------------------------|---------------------------------|


E|--------|--------|---------------------------------|--------|--------|--------|---------------------------------|
B|--------|--------|---------------------------------|-12-----|-12-----|-12-----|-12--12--12--12--12--12--12--12--|
G|--------|--------|-12--12--12--------------12--12--|--------|--------|--------|---------------------------------|
D|-9------|--------|-------------12--12--12----------|--------|--------|--------|---------------------------------|
A|--------|--------|---------------------------------|--------|--------|--------|---------------------------------|
E|--------|--------|---------------------------------|--------|--------|--------|---------------------------------|


E|---------------------------------|---------------------------------|---------------------------------|
B|-12--12--12--12--12--12--12--12--|-12--12--12--12--12--12--12--12--|-12--12--------------------------|
G|---------------------------------|---------------------------------|---------------------------------|
D|---------------------------------|---------------------------------|---------------------------------|
A|---------------------------------|---------------------------------|---------------------------------|
E|---------------------------------|---------------------------------|---------------------------------|


E|--------|---------------------------------|--------|---------------------------------|
B|--------|---------------------------------|--------|---------------------------------|
G|-12-----|---------------------------------|-12-----|---------------------------------|
D|--------|-12--12--12--10--10--10--9---10--|--------|-12--12--12--10--10--10--9---10--|
A|--------|---------------------------------|--------|---------------------------------|
E|--------|---------------------------------|--------|---------------------------------|


E|--------|---------------------------------|--------|---------------------------------|
B|--------|---------------------------------|--------|---------------------------------|
G|-12-----|---------------------------------|-12-----|---------------------------------|
D|--------|-12--12--12--10--10--10--9---10--|--------|-12--12--12--10--10--10--9---10--|
A|--------|---------------------------------|--------|---------------------------------|
E|--------|---------------------------------|--------|---------------------------------|


E|--------|---------------------------------|--------|---------------------------------|
B|--------|---------------------------------|--------|---------------------------------|
G|-12-----|---------------------------------|-12-----|---------------------------------|
D|--------|-12--12--12--10--10--10--9---10--|--------|-12--12--12--10--10--10--9---10--|
A|--------|---------------------------------|--------|---------------------------------|
E|--------|---------------------------------|--------|---------------------------------|


E|--------|---------------------------------|--------|---------------------------------|
B|--------|---------------------------------|--------|---------------------------------|
G|-12-----|---------------------------------|-12-----|---------------------------------|
D|--------|-12--12--12--10--10--10--9---10--|--------|-12--12--12--12--12--12--12--12--|
A|--------|---------------------------------|--------|---------------------------------|
E|--------|---------------------------------|--------|---------------------------------|


E|---------------------------------|---------------------------------|--------|---------------------------------|
B|---------------------------------|---------------------------------|--------|---------------------------------|
G|-12--12--12--12--12--12--12--12--|---------------------------------|-12-----|---------------------------------|
D|---------------------------------|-12--12--12--10--10--10--9---10--|--------|-12--12--12--10--10--10--9---10--|
A|---------------------------------|---------------------------------|--------|---------------------------------|
E|---------------------------------|---------------------------------|--------|---------------------------------|


E|---------------------------------|---------------------------------|--------|---------------------------------|
B|---------------------------------|---------------------------------|--------|---------------------------------|
G|-12--12--12--12--12--12--12--12--|---------------------------------|-12-----|---------------------------------|
D|---------------------------------|-12--12--12--10--10--10--9---10--|--------|-12--12--12--10--10--10--9---10--|
A|---------------------------------|---------------------------------|--------|---------------------------------|
E|---------------------------------|---------------------------------|--------|---------------------------------|


E|---------------------------------|---------------------------------|---------------------------------|
B|-15--15--15--15--13--13--13--13--|---------------------------------|-15--15--15--15--13--13--13--13--|
G|---------------------------------|-12--12--12--12--12--12--12--12--|---------------------------------|
D|---------------------------------|---------------------------------|---------------------------------|
A|---------------------------------|---------------------------------|---------------------------------|
E|---------------------------------|---------------------------------|---------------------------------|


E|---------------------------------|---------------------------------|---------------------------------|
B|-12--12--12--12--12--12--12--12--|-15--15--15--15--13--13--13--13--|---------------------------------|
G|---------------------------------|---------------------------------|-12--12--12--12--12--12--12--12--|
D|---------------------------------|---------------------------------|---------------------------------|
A|---------------------------------|---------------------------------|---------------------------------|
E|---------------------------------|---------------------------------|---------------------------------|


E|---------------------------------|---------------------------------|---------------------------------|
B|-15--15--15--15------------------|---------------------------------|---------------------------------|
G|-----------------12--12--12--12--|-14--14--14--14--14--14--14--14--|-14--14--14--14--14--14--14--14--|
D|---------------------------------|---------------------------------|---------------------------------|
A|---------------------------------|---------------------------------|---------------------------------|
E|---------------------------------|---------------------------------|---------------------------------|


E|--------|--------|--------|--------|--------|--------|--------|--------|--------|
B|--------|--------|--------|--------|--------|--------|--------|--------|--------|
G|--------|--------|--------|--------|--------|--------|--------|--------|--------|
D|--------|--------|--------|--------|--------|--------|--------|--------|--------|
A|--------|--------|--------|--------|--------|--------|--------|--------|--------|
E|--------|--------|--------|--------|--------|--------|--------|--------|--------|


E|--------|
B|--------|
G|--------|
D|--------|
A|--------|
E|--------|





Track 4: Distorted Rhythm

E|--------|--------|--------|--------|--------|--------|--------|--------|--------|
B|--------|--------|--------|--------|--------|--------|--------|--------|--------|
G|--------|--------|--------|--------|--------|--------|--------|--------|--------|
D|--------|--------|--------|--------|--------|--------|--------|--------|--------|
A|--------|--------|--------|--------|--------|--------|--------|--------|--------|
E|--------|--------|--------|--------|--------|--------|--------|--------|--------|


E|--------|--------|--------|--------|--------|--------|--------|--------|--------|
B|--------|--------|--------|--------|--------|--------|--------|--------|--------|
G|--------|--------|--------|--------|--------|--------|--------|--------|--------|
D|--------|--------|--------|--------|--------|--------|--------|--------|--------|
A|--------|--------|--------|--------|--------|--------|--------|--------|--------|
E|--------|--------|--------|--------|--------|--------|--------|--------|--------|


E|--------|--------|--------|--------|--------|--------|--------|--------|--------|
B|--------|--------|--------|--------|--------|--------|--------|--------|--------|
G|--------|--------|--------|--------|--------|--------|--------|--------|--------|
D|--------|--------|--------|--------|--------|--------|--------|--------|--------|
A|--------|--------|--------|--------|--------|--------|--------|--------|--------|
E|--------|--------|--------|--------|--------|--------|--------|--------|--------|


E|--------|--------|--------|--------|--------|--------|--------|---------------------------------|
B|--------|--------|--------|--------|--------|--------|--------|---------------------------------|
G|--------|--------|--------|--------|--------|--------|--------|---------------------------------|
D|--------|--------|--------|--------|--------|--------|--------|-2---2---2---2---2---2---2---2---|
A|--------|--------|--------|--------|--------|--------|--------|-2---2---2---2---2---2---2---2---|
E|--------|--------|--------|--------|--------|--------|--------|-0---0---0---0---0---0---0---0---|


E|---------------------------------|---------------------------------|---------------------------------|
B|---------------------------------|---------------------------------|---------------------------------|
G|-5---5---5---5---5---5---5---5---|---------------------------------|-7---7---7---7---7---7---7---7---|
D|-5---5---5---5---5---5---5---5---|-5---5---5---5---5---5---5---5---|-7---7---7---7---7---7---7---7---|
A|-3---3---3---3---3---3---3---3---|-5---5---5---5---5---5---5---5---|-5---5---5---5---5---5---5---5---|
E|---------------------------------|-3---3---3---3---3---3---3---3---|---------------------------------|


E|---------------------------------|---------------------------------|---------------------------------|
B|---------------------------------|---------------------------------|---------------------------------|
G|---------------------------------|-5---5---5---5---5---5---5---5---|---------------------------------|
D|-2---2---2---2---2---2---2---2---|-5---5---5---5---5---5---5---5---|-5---5---5---5---5---5---5---5---|
A|-2---2---2---2---2---2---2---2---|-3---3---3---3---3---3---3---3---|-5---5---5---5---5---5---5---5---|
E|-0---0---0---0---0---0---0---0---|---------------------------------|-3---3---3---3---3---3---3---3---|


E|---------------------------------|---------------------------------|--------|--------|
B|---------------------------------|---------------------------------|--------|--------|
G|-7---7---7---7---7---7---7---7---|-7---7---7---7---7---7---7---7---|--------|--------|
D|-7---7---7---7---7---7---7---7---|-7---7---7---7---7---7---7---7---|--------|--------|
A|-5---5---5---5---5---5---5---5---|-5---5---5---5---5---5---5---5---|--------|--------|
E|---------------------------------|---------------------------------|--------|--------|


E|--------|--------|--------|--------|--------|--------|--------|--------|--------|
B|--------|--------|--------|--------|--------|--------|--------|--------|--------|
G|--------|--------|--------|--------|--------|--------|--------|--------|--------|
D|--------|--------|--------|--------|--------|--------|--------|--------|--------|
A|--------|--------|--------|--------|--------|--------|--------|--------|--------|
E|--------|--------|--------|--------|--------|--------|--------|--------|--------|


E|--------|--------|--------|--------|--------|--------|--------|--------|--------|
B|--------|--------|--------|--------|--------|--------|--------|--------|--------|
G|--------|--------|--------|--------|--------|--------|--------|--------|--------|
D|--------|--------|--------|--------|--------|--------|--------|--------|--------|
A|--------|--------|--------|--------|--------|--------|--------|--------|--------|
E|--------|--------|--------|--------|--------|--------|--------|--------|--------|


E|--------|--------|--------|--------|--------|--------|---------------------------------|
B|--------|--------|--------|--------|--------|--------|---------------------------------|
G|--------|--------|--------|--------|--------|--------|---------------------------------|
D|--------|--------|--------|--------|--------|--------|-2---2---2---2---2---2---2---2---|
A|--------|--------|--------|--------|--------|--------|-2---2---2---2---2---2---2---2---|
E|--------|--------|--------|--------|--------|--------|-0---0---0---0---0---0---0---0---|


E|---------------------------------|---------------------------------|---------------------------------|
B|---------------------------------|---------------------------------|---------------------------------|
G|-5---5---5---5---5---5---5---5---|---------------------------------|-7---7---7---7---7---7---7---7---|
D|-5---5---5---5---5---5---5---5---|-5---5---5---5---5---5---5---5---|-7---7---7---7---7---7---7---7---|
A|-3---3---3---3---3---3---3---3---|-5---5---5---5---5---5---5---5---|-5---5---5---5---5---5---5---5---|
E|---------------------------------|-3---3---3---3---3---3---3---3---|---------------------------------|


E|---------------------------------|---------------------------------|---------------------------------|
B|---------------------------------|---------------------------------|---------------------------------|
G|---------------------------------|-5---5---5---5---5---5---5---5---|---------------------------------|
D|-2---2---2---2---2---2---2---2---|-5---5---5---5---5---5---5---5---|-5---5---5---5---5---5---5---5---|
A|-2---2---2---2---2---2---2---2---|-3---3---3---3---3---3---3---3---|-5---5---5---5---5---5---5---5---|
E|-0---0---0---0---0---0---0---0---|---------------------------------|-3---3---3---3---3---3---3---3---|


E|---------------------------------|---------------------------------|---------------------------------|
B|---------------------------------|---------------------------------|---------------------------------|
G|-7---7---7---7---7---7---7---7---|---------------------------------|-5---5---5---5---5---5---5---5---|
D|-7---7---7---7---7---7---7---7---|-2---2---2---2---2---2---2---2---|-5---5---5---5---5---5---5---5---|
A|-5---5---5---5---5---5---5---5---|-2---2---2---2---2---2---2---2---|-3---3---3---3---3---3---3---3---|
E|---------------------------------|-0---0---0---0---0---0---0---0---|---------------------------------|


E|---------------------------------|---------------------------------|---------------------------------|
B|---------------------------------|---------------------------------|---------------------------------|
G|---------------------------------|-7---7---7---7---7---7---7---7---|---------------------------------|
D|-5---5---5---5---5---5---5---5---|-7---7---7---7---7---7---7---7---|-2---2---2---2---2---2---2---2---|
A|-5---5---5---5---5---5---5---5---|-5---5---5---5---5---5---5---5---|-2---2---2---2---2---2---2---2---|
E|-3---3---3---3---3---3---3---3---|---------------------------------|-0---0---0---0---0---0---0---0---|


E|---------------------------------|---------------------------------|---------------------------------|
B|---------------------------------|---------------------------------|---------------------------------|
G|-5---5---5---5---5---5---5---5---|---------------------------------|-7---7---7---7---7---7---7---7---|
D|-5---5---5---5---5---5---5---5---|-5---5---5---5---5---5---5---5---|-7---7---7---7---7---7---7---7---|
A|-3---3---3---3---3---3---3---3---|-5---5---5---5---5---5---5---5---|-5---5---5---5---5---5---5---5---|
E|---------------------------------|-3---3---3---3---3---3---3---3---|---------------------------------|


E|---------------------------------|---------------------------------|--------|--------|
B|---------------------------------|---------------------------------|--------|--------|
G|-7---7---7---7---7---7---7---7---|-7---7---7---7---7---7---7---7---|--------|--------|
D|-7---7---7---7---7---7---7---7---|-7---7---7---7---7---7---7---7---|--------|--------|
A|-5---5---5---5---5---5---5---5---|-5---5---5---5---5---5---5---5---|--------|--------|
E|---------------------------------|---------------------------------|--------|--------|


E|--------|--------|--------|--------|--------|--------|--------|--------|--------|
B|--------|--------|--------|--------|--------|--------|--------|--------|--------|
G|--------|--------|--------|--------|--------|--------|--------|--------|--------|
D|--------|--------|--------|--------|--------|--------|--------|--------|--------|
A|--------|--------|--------|--------|--------|--------|--------|--------|--------|
E|--------|--------|--------|--------|--------|--------|--------|--------|--------|


E|--------|--------|--------|--------|--------|---------------------------------|---------------------------------|
B|--------|--------|--------|--------|--------|---------------------------------|---------------------------------|
G|--------|--------|--------|--------|--------|---------------------------------|---------------------------------|
D|--------|--------|--------|--------|--------|-5---5---5---5---5---5---5---5---|-2---2---2---2---2---2---2---2---|
A|--------|--------|--------|--------|--------|-5---5---5---5---5---5---5---5---|-2---2---2---2---2---2---2---2---|
E|--------|--------|--------|--------|--------|-3---3---3---3---3---3---3---3---|-0---0---0---0---0---0---0---0---|


E|---------------------------------|---------------------------------|---------------------------------|
B|---------------------------------|---------------------------------|---------------------------------|
G|-5---5---5---5---5---5---5---5---|-5---5---5---5---5---5---5---5---|---------------------------------|
D|-5---5---5---5---5---5---5---5---|-5---5---5---5---5---5---5---5---|-5---5---5---5---5---5---5---5---|
A|-3---3---3---3---3---3---3---3---|-3---3---3---3---3---3---3---3---|-5---5---5---5---5---5---5---5---|
E|---------------------------------|---------------------------------|-3---3---3---3---3---3---3---3---|


E|---------------------------------|---------------------------------|---------------------------------|
B|---------------------------------|---------------------------------|---------------------------------|
G|---------------------------------|-5---5---5---5---5---5---5---5---|-5---5---5---5---5---5---5---5---|
D|-2---2---2---2---2---2---2---2---|-5---5---5---5---5---5---5---5---|-5---5---5---5---5---5---5---5---|
A|-2---2---2---2---2---2---2---2---|-3---3---3---3---3---3---3---3---|-3---3---3---3---3---3---3---3---|
E|-0---0---0---0---0---0---0---0---|---------------------------------|---------------------------------|


E|---------------------------------|---------------------------------|---------------------------------|
B|---------------------------------|---------------------------------|---------------------------------|
G|---------------------------------|---------------------------------|-5---5---5---5---5---5---5---5---|
D|-5---5---5---5---5---5---5---5---|-2---2---2---2---2---2---2---2---|-5---5---5---5---5---5---5---5---|
A|-5---5---5---5---5---5---5---5---|-2---2---2---2---2---2---2---2---|-3---3---3---3---3---3---3---3---|
E|-3---3---3---3---3---3---3---3---|-0---0---0---0---0---0---0---0---|---------------------------------|


E|---------------------------------|---------------------------------|---------------------------------|
B|---------------------------------|---------------------------------|---------------------------------|
G|-5---5---5---5---5---5---5---5---|---------------------------------|---------------------------------|
D|-5---5---5---5---5---5---5---5---|-5---5---5---5---5---5---5---5---|-2---2---2---2---2---2---2---2---|
A|-3---3---3---3---3---3---3---3---|-5---5---5---5---5---5---5---5---|-2---2---2---2---2---2---2---2---|
E|---------------------------------|-3---3---3---3---3---3---3---3---|-0---0---0---0---0---0---0---0---|


E|---------------------------------|---------------------------------|---------------------------------|
B|---------------------------------|---------------------------------|---------------------------------|
G|-5---5---5---5---5---5---5---5---|-5---5---5---5---5---5---5---5---|---------------------------------|
D|-5---5---5---5---5---5---5---5---|-5---5---5---5---5---5---5---5---|-2---2---2---2---2---2---2---2---|
A|-3---3---3---3---3---3---3---3---|-3---3---3---3---3---3---3---3---|-2---2---2---2---2---2---2---2---|
E|---------------------------------|---------------------------------|-0---0---0---0---0---0---0---0---|


E|---------------------------------|---------------------------------|---------------------------------|
B|---------------------------------|---------------------------------|---------------------------------|
G|-5---5---5---5---5---5---5---5---|---------------------------------|-7---7---7---7---7---7---7---7---|
D|-5---5---5---5---5---5---5---5---|-5---5---5---5---5---5---5---5---|-7---7---7---7---7---7---7---7---|
A|-3---3---3---3---3---3---3---3---|-5---5---5---5---5---5---5---5---|-5---5---5---5---5---5---5---5---|
E|---------------------------------|-3---3---3---3---3---3---3---3---|---------------------------------|


E|---------------------------------|---------------------------------|---------------------------------|
B|---------------------------------|---------------------------------|---------------------------------|
G|---------------------------------|-5---5---5---5---5---5---5---5---|---------------------------------|
D|-2---2---2---2---2---2---2---2---|-5---5---5---5---5---5---5---5---|-5---5---5---5---5---5---5---5---|
A|-2---2---2---2---2---2---2---2---|-3---3---3---3---3---3---3---3---|-5---5---5---5---5---5---5---5---|
E|-0---0---0---0---0---0---0---0---|---------------------------------|-3---3---3---3---3---3---3---3---|


E|---------------------------------|---------------------------------|---------------------------------|
B|---------------------------------|---------------------------------|---------------------------------|
G|-7---7---7---7---7---7---7---7---|---------------------------------|-5---5---5---5---5---5---5---5---|
D|-7---7---7---7---7---7---7---7---|-2---2---2---2---2---2---2---2---|-5---5---5---5---5---5---5---5---|
A|-5---5---5---5---5---5---5---5---|-2---2---2---2---2---2---2---2---|-3---3---3---3---3---3---3---3---|
E|---------------------------------|-0---0---0---0---0---0---0---0---|---------------------------------|


E|---------------------------------|---------------------------------|---------------------------------|
B|---------------------------------|---------------------------------|---------------------------------|
G|---------------------------------|-7---7---7---7---7---7---7---7---|---------------------------------|
D|-5---5---5---5---5---5---5---5---|-7---7---7---7---7---7---7---7---|-2---2---2---2---2---2---2---2---|
A|-5---5---5---5---5---5---5---5---|-5---5---5---5---5---5---5---5---|-2---2---2---2---2---2---2---2---|
E|-3---3---3---3---3---3---3---3---|---------------------------------|-0---0---0---0---0---0---0---0---|


E|---------------------------------|---------------------------------|---------------------------------|
B|---------------------------------|---------------------------------|---------------------------------|
G|-5---5---5---5---5---5---5---5---|---------------------------------|-7---7---7---7---7---7---7---7---|
D|-5---5---5---5---5---5---5---5---|-5---5---5---5---5---5---5---5---|-7---7---7---7---7---7---7---7---|
A|-3---3---3---3---3---3---3---3---|-5---5---5---5---5---5---5---5---|-5---5---5---5---5---5---5---5---|
E|---------------------------------|-3---3---3---3---3---3---3---3---|---------------------------------|


E|---------------------------------|--------|--------|--------|--------|--------|--------|
B|---------------------------------|--------|--------|--------|--------|--------|--------|
G|-7---7---7---7---7---7---7---7---|--------|--------|--------|--------|--------|--------|
D|-7---7---7---7---7---7---7---7---|--------|--------|--------|--------|--------|--------|
A|-5---5---5---5---5---5---5---5---|--------|--------|--------|--------|--------|--------|
E|---------------------------------|--------|--------|--------|--------|--------|--------|


E|--------|--------|--------|--------|
B|--------|--------|--------|--------|
G|--------|--------|--------|--------|
D|--------|--------|--------|--------|
A|--------|--------|--------|--------|
E|--------|--------|--------|--------|





Track 5: Overdrive Rhythm

E|--------|--------|--------|--------|--------|--------|--------|--------|--------|
B|--------|--------|--------|--------|--------|--------|--------|--------|--------|
G|--------|--------|--------|--------|--------|--------|--------|--------|--------|
D|--------|--------|--------|--------|--------|--------|--------|--------|--------|
A|--------|--------|--------|--------|--------|--------|--------|--------|--------|
E|--------|--------|--------|--------|--------|--------|--------|--------|--------|


E|--------|--------|--------|--------|--------|--------|--------|--------|--------|
B|--------|--------|--------|--------|--------|--------|--------|--------|--------|
G|--------|--------|--------|--------|--------|--------|--------|--------|--------|
D|--------|--------|--------|--------|--------|--------|--------|--------|--------|
A|--------|--------|--------|--------|--------|--------|--------|--------|--------|
E|--------|--------|--------|--------|--------|--------|--------|--------|--------|


E|--------|--------|--------|--------|--------|--------|--------|--------|--------|
B|--------|--------|--------|--------|--------|--------|--------|--------|--------|
G|--------|--------|--------|--------|--------|--------|--------|--------|--------|
D|--------|--------|--------|--------|--------|--------|--------|--------|--------|
A|--------|--------|--------|--------|--------|--------|--------|--------|--------|
E|--------|--------|--------|--------|--------|--------|--------|--------|--------|


E|--------|--------|--------|--------|--------|--------|--------|--------|--------|
B|--------|--------|--------|--------|--------|--------|--------|--------|--------|
G|--------|--------|--------|--------|--------|--------|--------|--------|--------|
D|--------|--------|--------|--------|--------|--------|--------|--------|--------|
A|--------|--------|--------|--------|--------|--------|--------|--------|--------|
E|--------|--------|--------|--------|--------|--------|--------|--------|--------|


E|--------|--------|--------|--------|--------|--------|--------|--------|--------|
B|--------|--------|--------|--------|--------|--------|--------|--------|--------|
G|--------|--------|--------|--------|--------|--------|--------|--------|--------|
D|--------|--------|--------|--------|--------|--------|--------|--------|--------|
A|--------|--------|--------|--------|--------|--------|--------|--------|--------|
E|--------|--------|--------|--------|--------|--------|--------|--------|--------|


E|--------|---------------------------------|---------------------------------|---------------------------------|
B|--------|-------------8-------8-------8---|-----8-------8-------8-------8---|-----8-------8-------8-------8---|
G|--------|---------11--12--11--12--11--12--|-11--12--11--12--11--12--11--12--|-11--12--11--12--11--12--11--12--|
D|--------|---------------------------------|---------------------------------|---------------------------------|
A|--------|---------------------------------|---------------------------------|---------------------------------|
E|--------|---------------------------------|---------------------------------|---------------------------------|


E|--------|---------------------------------|--------|--------|--------|--------|--------|
B|--------|-------------8-------8-------8---|--------|--------|--------|--------|--------|
G|--------|---------11--12--11--12--11--12--|--------|--------|--------|--------|--------|
D|--------|---------------------------------|--------|--------|--------|--------|--------|
A|--------|---------------------------------|--------|--------|--------|--------|--------|
E|--------|---------------------------------|--------|--------|--------|--------|--------|


E|--------|--------|--------|--------|--------|--------|--------|--------|--------|
B|--------|--------|--------|--------|--------|--------|--------|--------|--------|
G|--------|--------|--------|--------|--------|--------|--------|--------|--------|
D|--------|--------|--------|--------|--------|--------|--------|--------|--------|
A|--------|--------|--------|--------|--------|--------|--------|--------|--------|
E|--------|--------|--------|--------|--------|--------|--------|--------|--------|


E|--------|--------|--------|--------|--------|--------|--------|--------|--------|
B|--------|--------|--------|--------|--------|--------|--------|--------|--------|
G|--------|--------|--------|--------|--------|--------|--------|--------|--------|
D|--------|--------|--------|--------|--------|--------|--------|--------|--------|
A|--------|--------|--------|--------|--------|--------|--------|--------|--------|
E|--------|--------|--------|--------|--------|--------|--------|--------|--------|


E|--------|--------|--------|--------|--------|--------|--------|--------|--------|
B|--------|--------|--------|--------|--------|--------|--------|--------|--------|
G|--------|--------|--------|--------|--------|--------|--------|--------|--------|
D|--------|--------|--------|--------|--------|--------|--------|--------|--------|
A|--------|--------|--------|--------|--------|--------|--------|--------|--------|
E|--------|--------|--------|--------|--------|--------|--------|--------|--------|


E|--------|--------|--------|--------|--------|--------|--------|--------|--------|
B|--------|--------|--------|--------|--------|--------|--------|--------|--------|
G|--------|--------|--------|--------|--------|--------|--------|--------|--------|
D|--------|--------|--------|--------|--------|--------|--------|--------|--------|
A|--------|--------|--------|--------|--------|--------|--------|--------|--------|
E|--------|--------|--------|--------|--------|--------|--------|--------|--------|


E|--------|--------|--------|--------|--------|--------|--------|--------|--------|
B|--------|--------|--------|--------|--------|--------|--------|--------|--------|
G|--------|--------|--------|--------|--------|--------|--------|--------|--------|
D|--------|--------|--------|--------|--------|--------|--------|--------|--------|
A|--------|--------|--------|--------|--------|--------|--------|--------|--------|
E|--------|--------|--------|--------|--------|--------|--------|--------|--------|


E|--------|--------|--------|--------|--------|--------|--------|--------|--------|
B|--------|--------|--------|--------|--------|--------|--------|--------|--------|
G|--------|--------|--------|--------|--------|--------|--------|--------|--------|
D|--------|--------|--------|--------|--------|--------|--------|--------|--------|
A|--------|--------|--------|--------|--------|--------|--------|--------|--------|
E|--------|--------|--------|--------|--------|--------|--------|--------|--------|


E|--------|--------|--------|--------|--------|--------|--------|--------|--------|
B|--------|--------|--------|--------|--------|--------|--------|--------|--------|
G|--------|--------|--------|--------|--------|--------|--------|--------|--------|
D|--------|--------|--------|--------|--------|--------|--------|--------|--------|
A|--------|--------|--------|--------|--------|--------|--------|--------|--------|
E|--------|--------|--------|--------|--------|--------|--------|--------|--------|


E|--------|--------|--------|--------|--------|--------|--------|--------|--------|
B|--------|--------|--------|--------|--------|--------|--------|--------|--------|
G|--------|--------|--------|--------|--------|--------|--------|--------|--------|
D|--------|--------|--------|--------|--------|--------|--------|--------|--------|
A|--------|--------|--------|--------|--------|--------|--------|--------|--------|
E|--------|--------|--------|--------|--------|--------|--------|--------|--------|


E|--------|--------|--------|--------|--------|--------|--------|--------|--------|
B|--------|--------|--------|--------|--------|--------|--------|--------|--------|
G|--------|--------|--------|--------|--------|--------|--------|--------|--------|
D|--------|--------|--------|--------|--------|--------|--------|--------|--------|
A|--------|--------|--------|--------|--------|--------|--------|--------|--------|
E|--------|--------|--------|--------|--------|--------|--------|--------|--------|


E|--------|--------|--------|--------|--------|--------|--------|--------|--------|
B|--------|--------|--------|--------|--------|--------|--------|--------|--------|
G|--------|--------|--------|--------|--------|--------|--------|--------|--------|
D|--------|--------|--------|--------|--------|--------|--------|--------|--------|
A|--------|--------|--------|--------|--------|--------|--------|--------|--------|
E|--------|--------|--------|--------|--------|--------|--------|--------|--------|





Track 6: Piano

E|--------|--------|--------|--------|--------|--------|--------|--------|--------|
B|--------|--------|--------|--------|--------|--------|--------|--------|--------|
G|--------|--------|--------|--------|--------|--------|--------|--------|--------|
D|--------|--------|--------|--------|--------|--------|--------|--------|--------|
A|--------|--------|--------|--------|--------|--------|--------|--------|--------|
E|--------|--------|--------|--------|--------|--------|--------|--------|--------|


E|--------|--------|--------|--------|--------|--------|--------|--------|--------|
B|--------|--------|--------|--------|--------|--------|--------|--------|--------|
G|--------|--------|--------|--------|--------|--------|--------|--------|--------|
D|--------|--------|--------|--------|--------|--------|--------|--------|--------|
A|--------|--------|--------|--------|--------|--------|--------|--------|--------|
E|--------|--------|--------|--------|--------|--------|--------|--------|--------|


E|--------|--------|--------|--------|--------|--------|--------|--------|--------|
B|--------|--------|--------|--------|--------|--------|--------|--------|--------|
G|--------|--------|--------|--------|--------|--------|--------|--------|--------|
D|--------|--------|--------|--------|--------|--------|--------|--------|--------|
A|--------|--------|--------|--------|--------|--------|--------|--------|--------|
E|--------|--------|--------|--------|--------|--------|--------|--------|--------|


E|--------|--------|--------|--------|--------|--------|--------|--------|--------|
B|--------|--------|--------|--------|--------|--------|--------|--------|--------|
G|--------|--------|--------|--------|--------|--------|--------|--------|--------|
D|--------|--------|--------|--------|--------|--------|--------|--------|--------|
A|--------|--------|--------|--------|--------|--------|--------|--------|--------|
E|--------|--------|--------|--------|--------|--------|--------|--------|--------|


E|--------|--------|--------|--------|--------|--------|--------|--------|--------|
B|--------|--------|--------|--------|--------|--------|--------|--------|--------|
G|--------|--------|--------|--------|--------|--------|--------|--------|--------|
D|--------|--------|--------|--------|--------|--------|--------|--------|--------|
A|--------|--------|--------|--------|--------|--------|--------|--------|--------|
E|--------|--------|--------|--------|--------|--------|--------|--------|--------|


E|--------|--------|--------|--------|--------|--------|--------|--------|--------|
B|--------|--------|--------|--------|--------|--------|--------|--------|--------|
G|--------|--------|--------|--------|--------|--------|--------|--------|--------|
D|--------|--------|--------|--------|--------|--------|--------|--------|--------|
A|--------|--------|--------|--------|--------|--------|--------|--------|--------|
E|--------|--------|--------|--------|--------|--------|--------|--------|--------|


E|--------|--------|--------|--------|--------|--------|--------|--------|--------|
B|--------|--------|--------|--------|--------|--------|--------|--------|--------|
G|--------|--------|--------|--------|--------|--------|--------|--------|--------|
D|--------|--------|--------|--------|--------|--------|--------|--------|--------|
A|--------|--------|--------|--------|--------|--------|--------|--------|--------|
E|--------|--------|--------|--------|--------|--------|--------|--------|--------|


E|--------|--------|--------|--------|--------|--------|--------|--------|--------|
B|--------|--------|--------|--------|--------|--------|--------|--------|--------|
G|--------|--------|--------|--------|--------|--------|--------|--------|--------|
D|--------|--------|--------|--------|--------|--------|--------|--------|--------|
A|--------|--------|--------|--------|--------|--------|--------|--------|--------|
E|--------|--------|--------|--------|--------|--------|--------|--------|--------|


E|--------|--------|--------|--------|--------|--------|--------|--------|--------|
B|--------|--------|--------|--------|--------|--------|--------|--------|--------|
G|--------|--------|--------|--------|--------|--------|--------|--------|--------|
D|--------|--------|--------|--------|--------|--------|--------|--------|--------|
A|--------|--------|--------|--------|--------|--------|--------|--------|--------|
E|--------|--------|--------|--------|--------|--------|--------|--------|--------|


E|--------|--------|--------|--------|--------|--------|--------|--------|--------|
B|--------|--------|--------|--------|--------|--------|--------|--------|--------|
G|--------|--------|--------|--------|--------|--------|--------|--------|--------|
D|--------|--------|--------|--------|--------|--------|--------|--------|--------|
A|--------|--------|--------|--------|--------|--------|--------|--------|--------|
E|--------|--------|--------|--------|--------|--------|--------|--------|--------|


E|--------|--------|--------|--------|--------|--------|--------|--------|--------|
B|--------|--------|--------|--------|--------|--------|--------|--------|--------|
G|--------|--------|--------|--------|--------|--------|--------|--------|--------|
D|--------|--------|--------|--------|--------|--------|--------|--------|--------|
A|--------|--------|--------|--------|--------|--------|--------|--------|--------|
E|--------|--------|--------|--------|--------|--------|--------|--------|--------|


E|--------|--------|--------|--------|--------|--------|--------|--------|--------|
B|--------|--------|--------|--------|--------|--------|--------|--------|--------|
G|--------|--------|--------|--------|--------|--------|--------|--------|--------|
D|--------|--------|--------|--------|--------|--------|--------|--------|--------|
A|--------|--------|--------|--------|--------|--------|--------|--------|--------|
E|--------|--------|--------|--------|--------|--------|--------|--------|--------|


E|--------|--------|--------|--------|--------|--------|--------|--------|--------|
B|--------|--------|--------|--------|--------|--------|--------|--------|--------|
G|--------|--------|--------|--------|--------|--------|--------|--------|--------|
D|--------|--------|--------|--------|--------|--------|--------|--------|--------|
A|--------|--------|--------|--------|--------|--------|--------|--------|--------|
E|--------|--------|--------|--------|--------|--------|--------|--------|--------|


E|--------|--------|--------|--------|--------|--------|--------|--------|--------|
B|--------|--------|--------|--------|--------|--------|--------|--------|--------|
G|--------|--------|--------|--------|--------|--------|--------|--------|--------|
D|--------|--------|--------|--------|--------|--------|--------|--------|--------|
A|--------|--------|--------|--------|--------|--------|--------|--------|--------|
E|--------|--------|--------|--------|--------|--------|--------|--------|--------|


E|--------|--------|--------|--------|--------|--------|--------|--------|--------|
B|--------|--------|--------|--------|--------|--------|--------|--------|--------|
G|--------|--------|--------|--------|--------|--------|--------|--------|--------|
D|--------|--------|--------|--------|--------|--------|--------|--------|--------|
A|--------|--------|--------|--------|--------|--------|--------|--------|--------|
E|--------|--------|--------|--------|--------|--------|--------|--------|--------|


E|--------|--------|--------|--------|--------|--------|--------|--------|--------|
B|--------|--------|--------|--------|--------|--------|--------|--------|--------|
G|--------|--------|--------|--------|--------|--------|--------|--------|--------|
D|--------|--------|--------|--------|--------|--------|--------|-9------|-9------|
A|--------|--------|--------|--------|--------|--------|--------|-7------|-7------|
E|--------|--------|--------|--------|--------|--------|--------|-0------|-0------|


E|--------|--------|
B|--------|--------|
G|--------|--------|
D|-9------|-9------|
A|-7------|-7------|
E|-0------|-0------|





Track 7: Bass

G|--------|--------|---------------------------------|-----------------------|--------|
D|--------|--------|---------------------------------|-----------------------|--------|
A|--------|--------|---------------------------------|-----------------------|-10-----|
E|--------|--------|-----0---0---0-------0---0---0---|-----0---0---0---0-----|--------|


G|--------|--------|---------------------------------|---------------------------------|
D|--------|--------|---------------------------------|---------------------------------|
A|-12-----|-7------|-7---7---7---7---7---5---5---5---|-10--10--10--10--10--10--10--10--|
E|--------|--------|---------------------------------|---------------------------------|


G|---------------------------------|---------------------------------|---------------------------------|
D|---------------------------------|---------------------------------|---------------------------------|
A|-0---0---0---0---0---0---0---0---|-7---7---7---7---7---7---7---7---|-7---7---7---7---7---7---7---7---|
E|---------------------------------|---------------------------------|---------------------------------|


G|---------------------------------|---------------------------------|---------------------------------|
D|---------------------------------|---------------------------------|---------------------------------|
A|-10--10--10--10--10--10--10--10--|-12--12--12--12--12--12--12--12--|-7---7---7---7---7---7---7---7---|
E|---------------------------------|---------------------------------|---------------------------------|


G|---------------------------------|-----------------------|-----------------------|
D|---------------------------------|-----------------------|-----------------------|
A|-7---7---7---7---7---5---5---5---|-----10--10--10--------|-----0---0-------------|
E|---------------------------------|-----------------------|-----------------------|


G|-----------------------|------------------------------|-----------------------|-----------------------|
D|-----------------------|------------------------------|-----------------------|-----------------------|
A|-----------------------|---------------------7----7---|-----10--10--10--------|-----0---0-------------|
E|-----0---0---0---------|-----0---0---0----------------|-----------------------|-----------------------|


G|-----------------------|---------------------------------|---------------------------------|
D|-----------------------|---------------------------------|---------------------------------|
A|-----------------------|---------------------5---5---5---|-10--10--10--10--10--10--10--10--|
E|-----0---0---0---------|-----0---0---0-------------------|---------------------------------|


G|---------------------------------|---------------------------------|---------------------------------|
D|---------------------------------|---------------------------------|---------------------------------|
A|-0---0---0---0---0---0---0---0---|-7---7---7---7---7---7---7---7---|-7---7---7---7---7---7---7---7---|
E|---------------------------------|---------------------------------|---------------------------------|


G|-----------------------|-----------------------|-----------------------|---------------------------------|
D|-----------------------|-----------------------|-----------------------|---------------------------------|
A|-----10--10--10--------|-----0---0-------------|-----------------------|---------------------5---5---5---|
E|-----------------------|-----------------------|-----0---0---0---------|-----0---0---0-------------------|


G|---------------------------------|---------------------------------|---------------------------------|
D|---------------------------------|---------------------------------|---------------------------------|
A|-3---3---3---3---3---3---3---3---|-3---3---3---3---3---3---3---3---|---------------------------------|
E|---------------------------------|---------------------------------|-0---0---0---0---0---0---0---0---|


G|---------------------------------|---------------------------------|---------------------------------|
D|---------------------------------|---------------------------------|---------------------------------|
A|-3---3---3---3---3---3---3---3---|---------------------------------|-5---5---5---5---5---5---5---5---|
E|---------------------------------|-3---3---3---3---3---3---3---3---|---------------------------------|


G|---------------------------------|---------------------------------|---------------------------------|
D|---------------------------------|---------------------------------|---------------------------------|
A|---------------------------------|-3---3---3---3---3---3---3---3---|---------------------------------|
E|-0---0---0---0---0---0---0---0---|---------------------------------|-3---3---3---3---3---3---3---3---|


G|---------------------------------|---------------------------------|---------------------------------|
D|---------------------------------|---------------------------------|---------------------------------|
A|-5---5---5---5---5---5---5---5---|-5---5---5---5---5---5---5---5---|-10--10--10--10--10--10--10--10--|
E|---------------------------------|---------------------------------|---------------------------------|


G|---------------------------------|---------------------------------|---------------------------------|
D|---------------------------------|---------------------------------|---------------------------------|
A|-12--12--12--12--12--12--12--12--|-7---7---7---7---7---7---7---7---|-7---7---7---7---7---7---7---7---|
E|---------------------------------|---------------------------------|---------------------------------|


G|---------------------------------|---------------------------------|---------------------------------|
D|---------------------------------|---------------------------------|---------------------------------|
A|-10--10--10--10--10--10--10--10--|-12--12--12--12--12--12--12--12--|-7---7---7---7---7---7---7---7---|
E|---------------------------------|---------------------------------|---------------------------------|


G|---------------------------------|-----------------------|-----------------------|
D|---------------------------------|-----------------------|-----------------------|
A|-7---7---7---7---7---5---5---5---|-----10--10--10--------|-----0---0-------------|
E|---------------------------------|-----------------------|-----------------------|


G|-----------------------|------------------------------|-----------------------|-----------------------|
D|-----------------------|------------------------------|-----------------------|-----------------------|
A|-----------------------|---------------------7----7---|-----10--10--10--------|-----0---0-------------|
E|-----0---0---0---------|-----0---0---0----------------|-----------------------|-----------------------|


G|-----------------------|---------------------------------|---------------------------------|
D|-----------------------|---------------------------------|---------------------------------|
A|-----------------------|---------------------5---5---5---|-10--10--10--10--10--10--10--10--|
E|-----0---0---0---------|-----0---0---0-------------------|---------------------------------|


G|---------------------------------|---------------------------------|---------------------------------|
D|---------------------------------|---------------------------------|---------------------------------|
A|-0---0---0---0---0---0---0---0---|-7---7---7---7---7---7---7---7---|-7---7---7---7---7---7---7---7---|
E|---------------------------------|---------------------------------|---------------------------------|


G|-----------------------|-----------------------|-----------------------|---------------------------------|
D|-----------------------|-----------------------|-----------------------|---------------------------------|
A|-----10--10--10--------|-----0---0-------------|-----------------------|---------------------5---5---5---|
E|-----------------------|-----------------------|-----0---0---0---------|-----0---0---0-------------------|


G|---------------------------------|---------------------------------|---------------------------------|
D|---------------------------------|---------------------------------|---------------------------------|
A|-3---3---3---3---3---3---3---3---|-3---3---3---3---3---3---3---3---|---------------------------------|
E|---------------------------------|---------------------------------|-0---0---0---0---0---0---0---0---|


G|---------------------------------|---------------------------------|---------------------------------|
D|---------------------------------|---------------------------------|---------------------------------|
A|-3---3---3---3---3---3---3---3---|---------------------------------|-5---5---5---5---5---5---5---5---|
E|---------------------------------|-3---3---3---3---3---3---3---3---|---------------------------------|


G|---------------------------------|---------------------------------|---------------------------------|
D|---------------------------------|---------------------------------|-5---5---5---5---5---5---5---5---|
A|---------------------------------|-3---3---3---3---3---3---3---3---|---------------------------------|
E|-0---0---0---0---0---0---0---0---|---------------------------------|---------------------------------|


G|---------------------------------|---------------------------------|---------------------------------|
D|---------------------------------|---------------------------------|---------------------------------|
A|-5---5---5---5---5---5---5---5---|---------------------------------|-3---3---3---3---3---3---3---3---|
E|---------------------------------|-0---0---0---0---0---0---0---0---|---------------------------------|


G|---------------------------------|---------------------------------|---------------------------------|
D|---------------------------------|---------------------------------|---------------------------------|
A|---------------------------------|-5---5---5---5---5---5---5---5---|---------------------------------|
E|-3---3---3---3---3---3---3---3---|---------------------------------|-0---0---0---0---0---0---0---0---|


G|---------------------------------|---------------------------------|---------------------------------|
D|---------------------------------|---------------------------------|---------------------------------|
A|-3---3---3---3---3---3---3---3---|---------------------------------|-5---5---5---5---5---5---5---5---|
E|---------------------------------|-3---3---3---3---3---3---3---3---|---------------------------------|


G|---------------------------------|---------------------------------|---------------------------------|
D|---------------------------------|---------------------------------|-5---5---5---5---5---5---5---5---|
A|-5---5---5---5---5---5---5---5---|-5---5---5---5---5---5---5---5---|---------------------------------|
E|---------------------------------|---------------------------------|---------------------------------|


G|---------------------------------|---------------------------------|---------------------------------|
D|---------------------------------|---------------------------------|---------------------------------|
A|-7---7---7---7---7---7---7---7---|-3---3---3---3---3---3---3---3---|-3---3---3---3---3---3---3---3---|
E|---------------------------------|---------------------------------|---------------------------------|


G|---------------------------------|---------------------------------|---------------------------------|
D|-5---5---5---5---5---5---5---5---|---------------------------------|-10--10--10--10--10--10--10--10--|
A|---------------------------------|-7---7---7---7---9---9---10--10--|---------------------------------|
E|---------------------------------|---------------------------------|---------------------------------|


G|---------------------------------|---------------------------------|---------------------------------|
D|-10--10--10--10--10--10--10--10--|-5---5---5---5---5---5---5---5---|---------------------------------|
A|---------------------------------|---------------------------------|-7---7---7---7---7---7---7---7---|
E|---------------------------------|---------------------------------|---------------------------------|


G|---------------------------------|---------------------------------|---------------------------------|
D|---------------------------------|---------------------------------|-5---5---5---5---5---5---5---5---|
A|-3---3---3---3---3---3---3---3---|-3---3---3---3---3---3---3---3---|---------------------------------|
E|---------------------------------|---------------------------------|---------------------------------|


G|---------------------------------|---------------------------------|---------------------------------|
D|---------------------------------|-10--10--10--10--10--10--10--10--|-10--10--10--10--10--10--10--10--|
A|-7---7---7---7---9---9---10--10--|---------------------------------|---------------------------------|
E|---------------------------------|---------------------------------|---------------------------------|


G|---------7---------------7-------|---------------------------------|---------------------------------|
D|-5---5-------5---5---5-------5---|---------------------------------|---------------------------------|
A|---------------------------------|-7---7---7---7---7---7---7---7---|-3---3---3---3---3---3---3---3---|
E|---------------------------------|---------------------------------|---------------------------------|


G|---------------------------------|---------7---------------7-------|---------------------------------|
D|---------------------------------|-5---5-------5---5---5-------5---|---------------------------------|
A|-3---3---3---3---3---3---3---3---|---------------------------------|-7---7---7---7---7---7---7---7---|
E|---------------------------------|---------------------------------|---------------------------------|


G|---------------------------------|---------------------------------|---------7---------------7-------|
D|---------------------------------|---------------------------------|-5---5-------5---5---5-------5---|
A|-3---3---3---3---3---3---3---3---|-3---3---3---3---3---3---3---3---|---------------------------------|
E|---------------------------------|---------------------------------|---------------------------------|


G|---------------------------------|---------------------------------|---------------------------------|
D|---------------------------------|---------------------------------|---------------------------------|
A|-7---7---7---7---7---7---7---7---|-3---3---3---3---3---3---3---3---|-3---3---3---3---3---3---3---3---|
E|---------------------------------|---------------------------------|---------------------------------|


G|---------7---------------7-------|---------------------------------|---------------------------------|
D|-5---5-------5---5---5-------5---|---------------------------------|-10--10--10--10--10--10--10--10--|
A|---------------------------------|-7---7---7---7---9---9---10--10--|---------------------------------|
E|---------------------------------|---------------------------------|---------------------------------|


G|---------------------------------|---------------------------------|---------------------------------|
D|-10--10--10--10--10--10--10--10--|---------------------------------|---------------------------------|
A|---------------------------------|---------------------------------|-3---3---3---3---3---3---3---3---|
E|---------------------------------|-0---0---0---0---0---0---0---0---|---------------------------------|


G|---------------------------------|---------------------------------|---------------------------------|
D|---------------------------------|---------------------------------|---------------------------------|
A|---------------------------------|-5---5---5---5---5---5---5---5---|---------------------------------|
E|-3---3---3---3---3---3---3---3---|---------------------------------|-0---0---0---0---0---0---0---0---|


G|---------------------------------|---------------------------------|---------------------------------|
D|---------------------------------|---------------------------------|---------------------------------|
A|-3---3---3---3---3---3---3---3---|---------------------------------|-5---5---5---5---5---5---5---5---|
E|---------------------------------|-3---3---3---3---3---3---3---3---|---------------------------------|


G|---------------------------------|---------------------------------|---------------------------------|
D|---------2---------------2-------|---------------------------------|---------12--------------12------|
A|---------------------------------|-3---3---3---3---3---3---3---3---|-10--10------10--10--10------10--|
E|-0---0-------0---0---0-------0---|---------------------------------|---------------------------------|


G|---------------------------------|---------------------------------|---------------------------------|
D|---------------------------------|---------2---------------2-------|---------------------------------|
A|-5---5---5---5---5---5---5---5---|---------------------------------|-3---3---3---3---3---3---3---3---|
E|---------------------------------|-0---0-------0---0---0-------0---|---------------------------------|


G|---------------------------------|---------------------------------|---------------------------------|
D|---------12--------------12------|---------------------------------|---------------------------------|
A|-10--10------10--10--10------10--|-5---5---5---5---5---5---5---5---|-5---5---5---5---5---5---5---5---|
E|---------------------------------|---------------------------------|---------------------------------|


G|--------|--------|---------------------------------|-----------------------|--------|
D|--------|--------|---------------------------------|-----------------------|--------|
A|-10-----|-10-----|---------------------------------|-----------------------|-10-----|
E|--------|--------|-----0---0---0-------0---0---0---|-----0---0---0---0-----|--------|


G|--------|--------|--------|--------|--------|
D|--------|--------|--------|--------|--------|
A|-12-----|-7------|-7------|-7------|-7------|
E|--------|--------|--------|--------|--------|