Menu:

 

Search:

 

alkaline trio - if we never go inside:

 



Title: If We Never Go Inside
Artist: 
Album: Good Mourning
Author: Matt Skiba, Dan Andriano and Derek Grant


Track 1: Matt Skiba

E|-------------------------------------------------|-------------------------------------------------|
B|-------------------------------------------------|-------------------------------------------------|
G|-------------------------------------------------|-------------------------------------------------|
D|-6--6--6--7--7--7--6--6--6--7--7--7--2--2--4--4--|-6--6--6--7--7--7--6--6--6--7--7--7--2--2--4--4--|
A|-0--0--0--0--0--0--0--0--0--0--0--0--0--0--0--0--|-4--4--4--4--4--4--4--4--4--4--4--4--4--4--4--4--|
E|-------------------------------------------------|-------------------------------------------------|


E|-------------------------------------------------|-------------------------------------------------|
B|-------------------------------------------------|-------------------------------------------------|
G|-------------------------------------------------|-------------------------------------------------|
D|-9--9--9--9--9--9--9--9--4--4--4--4--4--4--4--4--|-2--2--2--2--4--4--4--4--6--6--6--6--7--7--7--7--|
A|-7--7--7--7--7--7--7--7--2--2--2--2--2--2--2--2--|-0--0--0--0--0--0--0--0--0--0--0--0--0--0--0--0--|
E|-------------------------------------------------|-------------------------------------------------|


E|-------------------------------------------------|-------------------------------------------------|
B|-------------------------------------------------|-------------------------------------------------|
G|-------------------------------------------------|-------------------------------------------------|
D|-6--6--6--7--7--7--6--6--6--7--7--7--2--2--4--4--|-6--6--6--7--7--7--6--6--6--7--7--7--2--2--4--4--|
A|-0--0--0--0--0--0--0--0--0--0--0--0--0--0--0--0--|-4--4--4--4--4--4--4--4--4--4--4--4--4--4--4--4--|
E|-------------------------------------------------|-------------------------------------------------|


E|-------------------------------------------------|-------------------------------------------------|
B|-------------------------------------------------|-------------------------------------------------|
G|-------------------------------------------------|-------------------------------------------------|
D|-9--9--9--9--9--9--9--9--4--4--4--4--4--4--4--4--|-2--2--2--2--4--4--4--4--6--6--6--6--7--7--7--7--|
A|-7--7--7--7--7--7--7--7--2--2--2--2--2--2--2--2--|-0--0--0--0--0--0--0--0--0--0--0--0--0--0--0--0--|
E|-------------------------------------------------|-------------------------------------------------|


E|-------------------------------------------------|-------------------------------------------------|
B|-------------------------------------------------|-------------------------------------------------|
G|-------------------------------------------------|-------------------------------------------------|
D|-6--6--6--7--7--7--6--6--6--7--7--7--2--2--4--4--|-6--6--6--6--6--6--6--6--9--9--9--9--9--9--9--9--|
A|-0--0--0--0--0--0--0--0--0--0--0--0--0--0--0--0--|-4--4--4--4--4--4--4--4--7--7--7--7--7--7--7--7--|
E|-------------------------------------------------|-------------------------------------------------|


E|-------------------------------------------------|-------------------------------------------------|
B|-------------------------------------------------|-------------------------------------------------|
G|-------------------------------------------------|-------------------------------------------------|
D|-2--2--2--2--4--4--4--4--6--6--6--6--7--7--7--7--|-6--6--6--6--6--6--6--6--9--9--9--9--9--9--9--9--|
A|-0--0--0--0--0--0--0--0--0--0--0--0--0--0--0--0--|-4--4--4--4--4--4--4--4--7--7--7--7--7--7--7--7--|
E|-------------------------------------------------|-------------------------------------------------|


E|-------------------------------------------------|-------------------------------------------------|
B|-------------------------------------------------|-------------------------------------------------|
G|-------------------------------------------------|-------------------------------------------------|
D|-4--4--4--4--4--4--4--4--2--2--2--2--2--2--2--2--|-6--6--6--6--6--6--6--6--9--9--9--9--9--9--9--9--|
A|-2--2--2--2--2--2--2--2--0--0--0--0--0--0--0--0--|-4--4--4--4--4--4--4--4--7--7--7--7--7--7--7--7--|
E|-------------------------------------------------|-------------------------------------------------|


E|-------------------------------------------------|-------------------------------------------------|
B|-------------------------------------------------|-------------------------------------------------|
G|-------------------------------------------------|-------------------------------------------------|
D|-2--2--2--2--4--4--4--4--6--6--6--6--7--7--7--7--|-6--6--6--6--6--6--6--6--9--9--9--9--9--9--9--9--|
A|-0--0--0--0--0--0--0--0--0--0--0--0--0--0--0--0--|-4--4--4--4--4--4--4--4--7--7--7--7--7--7--7--7--|
E|-------------------------------------------------|-------------------------------------------------|


E|-------------------------------------------------|-------------------------------------------------|
B|-------------------------------------------------|-------------------------------------------------|
G|-------------------------------------------------|-------------------------------------------------|
D|-4--4--4--4--4--4--4--4--2--2--2--2--2--2--2--2--|-9--9--9--9--9--9--9--9--4--4--4--4--4--4--4--4--|
A|-2--2--2--2--2--2--2--2--0--0--0--0--0--0--0--0--|-7--7--7--7--7--7--7--7--2--2--2--2--2--2--2--2--|
E|-------------------------------------------------|-------------------------------------------------|


E|-------------------------------------------------|-------------------------------------------------|
B|-------------------------------------------------|-------------------------------------------------|
G|-------------------------------------------------|-------------------------------------------------|
D|-2--2--2--2--4--4--4--4--6--6--6--6--7--7--7--7--|-9--9--9--9--9--9--9--9--4--4--4--4--4--4--4--4--|
A|-0--0--0--0--0--0--0--0--0--0--0--0--0--0--0--0--|-7--7--7--7--7--7--7--7--2--2--2--2--2--2--2--2--|
E|-------------------------------------------------|-------------------------------------------------|


E|-------------------------------------------------|-------------------------------------------------|
B|-------------------------------------------------|-------------------------------------------------|
G|-------------------------------------------------|-------------------------------------------------|
D|-2--2--2--2--4--4--4--4--6--6--6--6--7--7--7--7--|-6--6--6--7--7--7--6--6--6--7--7--7--2--2--4--4--|
A|-0--0--0--0--0--0--0--0--0--0--0--0--0--0--0--0--|-0--0--0--0--0--0--0--0--0--0--0--0--0--0--0--0--|
E|-------------------------------------------------|-------------------------------------------------|


E|-------------------------------------------------|-------------------------------------------------|
B|-------------------------------------------------|-------------------------------------------------|
G|-------------4--4--4--4--2--2--2--2--2--2--2--2--|-------------4--4--4--4--2--2--2--2--2--2--2--2--|
D|-2--2--2--2--4--4--4--4--2--2--2--2--2--2--2--2--|-2--2--2--2--4--4--4--4--2--2--2--2--2--2--2--2--|
A|-2--2--2--2--2--2--2--2--0--0--0--0--0--0--0--0--|-2--2--2--2--2--2--2--2--0--0--0--0--0--0--0--0--|
E|-0--0--0--0--------------------------------------|-0--0--0--0--------------------------------------|


E|-------------------------------------------------|-------------------------------------------------|
B|-------------------------------------------------|-------------------------------------------------|
G|-------------------------6--6--6--6--6--6--6--6--|-4--4--4--4--4--4--4--4--4--4--4--4--4--4--4--4--|
D|-2--2--2--2--2--2--2--2--6--6--6--6--6--6--6--6--|-4--4--4--4--4--4--4--4--4--4--4--4--4--4--4--4--|
A|-2--2--2--2--2--2--2--2--4--4--4--4--4--4--4--4--|-2--2--2--2--2--2--2--2--2--2--2--2--2--2--2--2--|
E|-0--0--0--0--0--0--0--0--------------------------|-------------------------------------------------|


E|-------------------------------------------------|-------------------------------------------------|
B|-------------------------------------------------|-------------------------------------------------|
G|-------------------------------------------------|-------------------------------------------------|
D|-6--6--6--7--7--7--6--6--6--7--7--7--2--2--4--4--|-6--6--6--7--7--7--6--6--6--7--7--7--2--2--4--4--|
A|-0--0--0--0--0--0--0--0--0--0--0--0--0--0--0--0--|-4--4--4--4--4--4--4--4--4--4--4--4--4--4--4--4--|
E|-------------------------------------------------|-------------------------------------------------|


E|-------------------------------------------------|-------------------------------------------------|
B|-------------------------------------------------|-------------------------------------------------|
G|-------------------------------------------------|-------------------------------------------------|
D|-9--9--9--9--9--9--9--9--4--4--4--4--4--4--4--4--|-2--2--2--2--4--4--4--4--6--6--6--6--7--7--7--7--|
A|-7--7--7--7--7--7--7--7--2--2--2--2--2--2--2--2--|-0--0--0--0--0--0--0--0--0--0--0--0--0--0--0--0--|
E|-------------------------------------------------|-------------------------------------------------|


E|-------------------------------------------------|-------------------------------------------------|
B|-------------------------------------------------|-------------------------------------------------|
G|-------------------------------------------------|-------------------------------------------------|
D|-6--6--6--6--6--6--6--6--9--9--9--9--9--9--9--9--|-2--2--2--2--4--4--4--4--6--6--6--6--7--7--7--7--|
A|-4--4--4--4--4--4--4--4--7--7--7--7--7--7--7--7--|-0--0--0--0--0--0--0--0--0--0--0--0--0--0--0--0--|
E|-------------------------------------------------|-------------------------------------------------|


E|-------------------------------------------------|-------------------------------------------------|
B|-------------------------------------------------|-------------------------------------------------|
G|-------------------------------------------------|-------------------------------------------------|
D|-6--6--6--6--6--6--6--6--9--9--9--9--9--9--9--9--|-4--4--4--4--4--4--4--4--2--2--2--2--2--2--2--2--|
A|-4--4--4--4--4--4--4--4--7--7--7--7--7--7--7--7--|-2--2--2--2--2--2--2--2--0--0--0--0--0--0--0--0--|
E|-------------------------------------------------|-------------------------------------------------|


E|-------------------------------------------------|-------------------------------------------------|
B|-------------------------------------------------|-------------------------------------------------|
G|-------------------------------------------------|-------------------------------------------------|
D|-6--6--6--6--6--6--6--6--9--9--9--9--9--9--9--9--|-2--2--2--2--4--4--4--4--6--6--6--6--7--7--7--7--|
A|-4--4--4--4--4--4--4--4--7--7--7--7--7--7--7--7--|-0--0--0--0--0--0--0--0--0--0--0--0--0--0--0--0--|
E|-------------------------------------------------|-------------------------------------------------|


E|-------------------------------------------------|-------------------------------------------------|
B|-------------------------------------------------|-------------------------------------------------|
G|-------------------------------------------------|-------------------------------------------------|
D|-6--6--6--6--6--6--6--6--9--9--9--9--9--9--9--9--|-4--4--4--4--4--4--4--4--2--2--2--2--2--2--2--2--|
A|-4--4--4--4--4--4--4--4--7--7--7--7--7--7--7--7--|-2--2--2--2--2--2--2--2--0--0--0--0--0--0--0--0--|
E|-------------------------------------------------|-------------------------------------------------|


E|-------------------------------------------------|-------------------------------------------------|
B|-------------------------------------------------|-------------------------------------------------|
G|-------------------------------------------------|-------------------------------------------------|
D|-9--9--9--9--9--9--9--9--4--4--4--4--4--4--4--4--|-2--2--2--2--4--4--4--4--6--6--6--6--7--7--7--7--|
A|-7--7--7--7--7--7--7--7--2--2--2--2--2--2--2--2--|-0--0--0--0--0--0--0--0--0--0--0--0--0--0--0--0--|
E|-------------------------------------------------|-------------------------------------------------|


E|-------------------------------------------------|-------------------------------------------------|
B|-------------------------------------------------|-------------------------------------------------|
G|-------------------------------------------------|-------------------------------------------------|
D|-9--9--9--9--9--9--9--9--4--4--4--4--4--4--4--4--|-2--2--2--2--4--4--4--4--6--6--6--6--7--7--7--7--|
A|-7--7--7--7--7--7--7--7--2--2--2--2--2--2--2--2--|-0--0--0--0--0--0--0--0--0--0--0--0--0--0--0--0--|
E|-------------------------------------------------|-------------------------------------------------|


E|-------------------------------------------------|-------------------------------------------------|
B|-------------------------------------------------|-------------------------------------------------|
G|-------------4--4--4--4--2--2--2--2--2--2--2--2--|-------------4--4--4--4--2--2--2--2--2--2--2--2--|
D|-2--2--2--2--4--4--4--4--2--2--2--2--2--2--2--2--|-2--2--2--2--4--4--4--4--2--2--2--2--2--2--2--2--|
A|-2--2--2--2--2--2--2--2--0--0--0--0--0--0--0--0--|-2--2--2--2--2--2--2--2--0--0--0--0--0--0--0--0--|
E|-0--0--0--0--------------------------------------|-0--0--0--0--------------------------------------|


E|-------------------------------------------------|-------------------------------------------------|
B|-------------------------------------------------|-------------------------------------------------|
G|-------------------------6--6--6--6--6--6--6--6--|-4--4--4--4--4--4--4--4--4--4--4--4--4--4--4--4--|
D|-2--2--2--2--2--2--2--2--6--6--6--6--6--6--6--6--|-4--4--4--4--4--4--4--4--4--4--4--4--4--4--4--4--|
A|-2--2--2--2--2--2--2--2--4--4--4--4--4--4--4--4--|-2--2--2--2--2--2--2--2--2--2--2--2--2--2--2--2--|
E|-0--0--0--0--0--0--0--0--------------------------|-------------------------------------------------|


E|-------------------------------------------------|-------------------------------------------------|
B|-------------------------------------------------|-------------------------------------------------|
G|-------------4--4--4--4--2--2--2--2--2--2--2--2--|-------------4--4--4--4--2--2--2--2--2--2--2--2--|
D|-2--2--2--2--4--4--4--4--2--2--2--2--2--2--2--2--|-2--2--2--2--4--4--4--4--2--2--2--2--2--2--2--2--|
A|-2--2--2--2--2--2--2--2--0--0--0--0--0--0--0--0--|-2--2--2--2--2--2--2--2--0--0--0--0--0--0--0--0--|
E|-0--0--0--0--------------------------------------|-0--0--0--0--------------------------------------|


E|-------------------------------------------------|-------------------------------------------------|
B|-------------------------------------------------|-------------------------------------------------|
G|-------------------------6--6--6--6--6--6--6--6--|-4--4--4--4--4--4--4--4--4--4--4--4--4--4--4--4--|
D|-2--2--2--2--2--2--2--2--6--6--6--6--6--6--6--6--|-4--4--4--4--4--4--4--4--4--4--4--4--4--4--4--4--|
A|-2--2--2--2--2--2--2--2--4--4--4--4--4--4--4--4--|-2--2--2--2--2--2--2--2--2--2--2--2--2--2--2--2--|
E|-0--0--0--0--0--0--0--0--------------------------|-------------------------------------------------|


E|-------------------------------------------------|-------------------------------------------------|
B|-------------------------------------------------|-------------------------------------------------|
G|-9--9--9--9--9--9--8--8--11-11-11-11-9--9--9--9--|-9--9--9--9--11-11-11-11-13-13-13-13-14-14-14-14-|
D|-------------------------------------------------|-------------------------------------------------|
A|-7--7--7--7--7--7--6--6--9--9--9--9--7--7--7--7--|-7--7--7--7--9--9--9--9--11-11-11-11-12-12-12-12-|
E|-------------------------------------------------|-------------------------------------------------|


E|-------------------------------------------------|-------------------------------------------------|
B|-------------------------------------------------|-------------------------------------------------|
G|-9--9--9--9--9--9--8--8--11-11-11-11-9--9--9--9--|-9--9--9--9--11-11-11-11-13-13-13-13-14-14-14-14-|
D|-------------------------------------------------|-------------------------------------------------|
A|-7--7--7--7--7--7--6--6--9--9--9--9--7--7--7--7--|-7--7--7--7--9--9--9--9--11-11-11-11-12-12-12-12-|
E|-------------------------------------------------|-------------------------------------------------|


E|-------------------------------------------------|-------------------------------------------------|
B|-------------------------------------------------|-------------------------------------------------|
G|-------------------------------------------------|-------------------------------------------------|
D|-6--6--6--6--6--6--6--6--9--9--9--9--9--9--9--9--|-2--2--2--2--4--4--4--4--6--6--6--6--7--7--7--7--|
A|-4--4--4--4--4--4--4--4--7--7--7--7--7--7--7--7--|-0--0--0--0--0--0--0--0--0--0--0--0--0--0--0--0--|
E|-------------------------------------------------|-------------------------------------------------|


E|-------------------------------------------------|-------------------------------------------------|
B|-------------------------------------------------|-------------------------------------------------|
G|-------------------------------------------------|-------------------------------------------------|
D|-6--6--6--6--6--6--6--6--9--9--9--9--9--9--9--9--|-2--2--2--2--4--4--4--4--6--6--6--6--7--7--7--7--|
A|-4--4--4--4--4--4--4--4--7--7--7--7--7--7--7--7--|-0--0--0--0--0--0--0--0--0--0--0--0--0--0--0--0--|
E|-------------------------------------------------|-------------------------------------------------|


E|-------------------------------------------------|-------------------------------------------------|
B|-------------------------------------------------|-------------------------------------------------|
G|-------------------------------------------------|-------------------------------------------------|
D|-6--6--6--6--6--6--6--6--9--9--9--9--9--9--9--9--|-2--2--2--2--4--4--4--4--6--6--6--6--7--7--7--7--|
A|-4--4--4--4--4--4--4--4--7--7--7--7--7--7--7--7--|-0--0--0--0--0--0--0--0--0--0--0--0--0--0--0--0--|
E|-------------------------------------------------|-------------------------------------------------|


E|-------------------------------------------------|-------------------------------------------------|
B|-------------------------------------------------|-------------------------------------------------|
G|-------------------------------------------------|-------------------------------------------------|
D|-6--6--6--6--6--6--6--6--9--9--9--9--9--9--9--9--|-2--2--2--2--4--4--4--4--6--6--6--6--7--7--7--7--|
A|-4--4--4--4--4--4--4--4--7--7--7--7--7--7--7--7--|-0--0--0--0--0--0--0--0--0--0--0--0--0--0--0--0--|
E|-------------------------------------------------|-------------------------------------------------|


E|-------------------------------------------------|-----------------|-----------------|
B|-------------------------------------------------|-----------------|-----------------|
G|-4--4--4--4--4--4--4--4--4--4--4--4--4--4--4--4--|------4----2-----|------4----2-----|
D|-4--4--4--4--4--4--4--4--4--4--4--4--4--4--4--4--|-2----4----2-----|-2----4----2-----|
A|-2--2--2--2--2--2--2--2--2--2--2--2--2--2--2--2--|-2----2----0-----|-2----2----0-----|
E|-------------------------------------------------|-0---------------|-0---------------|


E|-------------------------------------------------|-------------------------------------------------|
B|-------------------------------------------------|-------------------------------------------------|
G|-------------------------6--6--6--6--6--6--6--6--|-4--4--4--4--4--4--4--4--4--4--4--4--4--4--4--4--|
D|-2--2--2--2--2--2--2--2--6--6--6--6--6--6--6--6--|-4--4--4--4--4--4--4--4--4--4--4--4--4--4--4--4--|
A|-2--2--2--2--2--2--2--2--4--4--4--4--4--4--4--4--|-2--2--2--2--2--2--2--2--2--2--2--2--2--2--2--2--|
E|-0--0--0--0--0--0--0--0--------------------------|-------------------------------------------------|


E|-------------------------------------------------|-------------------------------------------------|
B|-------------------------------------------------|-------------------------------------------------|
G|-------------4--4--4--4--2--2--2--2--2--2--2--2--|-------------4--4--4--4--2--2--2--2--2--2--2--2--|
D|-2--2--2--2--4--4--4--4--2--2--2--2--2--2--2--2--|-2--2--2--2--4--4--4--4--2--2--2--2--2--2--2--2--|
A|-2--2--2--2--2--2--2--2--0--0--0--0--0--0--0--0--|-2--2--2--2--2--2--2--2--0--0--0--0--0--0--0--0--|
E|-0--0--0--0--------------------------------------|-0--0--0--0--------------------------------------|


E|-------------------------------------------------|-------------------------------------------------|
B|-------------------------------------------------|-------------------------------------------------|
G|-------------------------6--6--6--6--6--6--6--6--|-4--4--4--4--4--4--4--4--4--4--4--4--4--4--4--4--|
D|-2--2--2--2--2--2--2--2--6--6--6--6--6--6--6--6--|-4--4--4--4--4--4--4--4--4--4--4--4--4--4--4--4--|
A|-2--2--2--2--2--2--2--2--4--4--4--4--4--4--4--4--|-2--2--2--2--2--2--2--2--2--2--2--2--2--2--2--2--|
E|-0--0--0--0--0--0--0--0--------------------------|-------------------------------------------------|


E|-------------------------------------------------|--------|
B|-------------------------------------------------|--------|
G|-------------------------------------------------|--------|
D|-6--6--6--7--7--7--6--6--6--7--7--7--2--2--4--4--|-2------|
A|-0--0--0--0--0--0--0--0--0--0--0--0--0--0--0--0--|-2------|
E|-------------------------------------------------|-0------|





Track 2: 2nd Guitarist

E|--------|--------|--------|--------|--------|--------|--------|--------|--------|
B|--------|--------|--------|--------|--------|--------|--------|--------|--------|
G|--------|--------|--------|--------|--------|--------|--------|--------|--------|
D|--------|--------|--------|--------|--------|--------|--------|--------|--------|
A|--------|--------|--------|--------|--------|--------|--------|--------|--------|
E|--------|--------|--------|--------|--------|--------|--------|--------|--------|


E|--------|--------|--------|--------|--------|--------|--------|--------|--------|
B|--------|--------|--------|--------|--------|--------|--------|--------|--------|
G|--------|--------|--------|--------|--------|--------|--------|--------|--------|
D|--------|--------|--------|--------|--------|--------|--------|--------|--------|
A|--------|--------|--------|--------|--------|--------|--------|--------|--------|
E|--------|--------|--------|--------|--------|--------|--------|--------|--------|


E|--------|--------|--------|--------|--------|--------|--------|--------|--------|
B|--------|--------|--------|--------|--------|--------|--------|--------|--------|
G|--------|--------|--------|--------|--------|--------|--------|--------|--------|
D|--------|--------|--------|--------|--------|--------|--------|--------|--------|
A|--------|--------|--------|--------|--------|--------|--------|--------|--------|
E|--------|--------|--------|--------|--------|--------|--------|--------|--------|


E|--------|--------|--------|--------|--------|--------|--------|--------|--------|
B|--------|--------|--------|--------|--------|--------|--------|--------|--------|
G|--------|--------|--------|--------|--------|--------|--------|--------|--------|
D|--------|--------|--------|--------|--------|--------|--------|--------|--------|
A|--------|--------|--------|--------|--------|--------|--------|--------|--------|
E|--------|--------|--------|--------|--------|--------|--------|--------|--------|


E|--------|--------|--------|--------|--------|--------|--------|--------|--------|
B|--------|--------|--------|--------|--------|--------|--------|--------|--------|
G|--------|--------|--------|--------|--------|--------|--------|--------|--------|
D|--------|--------|--------|--------|--------|--------|--------|--------|--------|
A|--------|--------|--------|--------|--------|--------|--------|--------|--------|
E|--------|--------|--------|--------|--------|--------|--------|--------|--------|


E|--------|--------|--------|--------|--------|-------------------------------------------------|
B|--------|--------|--------|--------|--------|-------------------------------------------------|
G|--------|--------|--------|--------|--------|-------------------------------------------------|
D|--------|--------|--------|--------|--------|-2--2--2--2--2--2--2--2--2--2--2--2--2--2--2--2--|
A|--------|--------|--------|--------|--------|-2--2--2--2--2--2--2--2--2--2--2--2--2--2--2--2--|
E|--------|--------|--------|--------|--------|-0--0--0--0--0--0--0--0--0--0--0--0--0--0--0--0--|


E|-------------------------------------------------|-------------------------------------------------|
B|-------------------------------------------------|-------------------------------------------------|
G|-2--2--2--2--2--2--2--2--2--2--2--2--2--2--2--2--|-------------------------------------------------|
D|-2--2--2--2--2--2--2--2--2--2--2--2--2--2--2--2--|-2--2--2--2--2--2--2--2--2--2--2--2--2--2--2--2--|
A|-0--0--0--0--0--0--0--0--0--0--0--0--0--0--0--0--|-2--2--2--2--2--2--2--2--2--2--2--2--2--2--2--2--|
E|-------------------------------------------------|-0--0--0--0--0--0--0--0--0--0--0--0--0--0--0--0--|


E|-------------------------------------------------|--------|--------|--------|--------|
B|-------------------------------------------------|--------|--------|--------|--------|
G|-2--2--2--2--2--2--2--2--2--2--2--2--2--2--2--2--|--------|--------|--------|--------|
D|-2--2--2--2--2--2--2--2--2--2--2--2--2--2--2--2--|--------|--------|--------|--------|
A|-0--0--0--0--0--0--0--0--0--0--0--0--0--0--0--0--|--------|--------|--------|--------|
E|-------------------------------------------------|--------|--------|--------|--------|


E|--------|--------|--------|--------|--------|--------|--------|--------|--------|
B|--------|--------|--------|--------|--------|--------|--------|--------|--------|
G|--------|--------|--------|--------|--------|--------|--------|--------|--------|
D|--------|--------|--------|--------|--------|--------|--------|--------|--------|
A|--------|--------|--------|--------|--------|--------|--------|--------|--------|
E|--------|--------|--------|--------|--------|--------|--------|--------|--------|


E|-------------------------------------------------|-------------------------------------------------|
B|-------------------------------------------------|-------------------------------------------------|
G|-9--9--9--9--8--8--8--8--9--9--9--9--9--9--9--9--|-9--9--9--9--8--8--8--8--9--9--9--9--9--9--9--9--|
D|-------------------------------------------------|-------------------------------------------------|
A|-7--7--7--7--6--6--6--6--7--7--7--7--7--7--7--7--|-7--7--7--7--6--6--6--6--7--7--7--7--7--7--7--7--|
E|-------------------------------------------------|-------------------------------------------------|


E|-------------------------------------------------|-------------------------------------------------|
B|-------------------------------------------------|-------------------------------------------------|
G|-9--9--9--9--9--9--9--9--13-13-13-13-13-13-13-13-|-11-11-11-11-11-11-11-11-11-11-11-11-11-11-11-11-|
D|-------------------------------------------------|-------------------------------------------------|
A|-7--7--7--7--7--7--7--7--11-11-11-11-11-11-11-11-|-9--9--9--9--9--9--9--9--9--9--9--9--9--9--9--9--|
E|-------------------------------------------------|-------------------------------------------------|


E|--------|--------|
B|--------|--------|
G|--------|--------|
D|--------|--------|
A|--------|--------|
E|--------|--------|





Track 3: Untitled

G|--------|--------|--------|--------|--------|--------|--------|--------|--------|
D|--------|--------|--------|--------|--------|--------|--------|--------|--------|
A|--------|--------|--------|--------|--------|--------|--------|--------|--------|
E|--------|--------|--------|--------|--------|--------|--------|--------|--------|


G|--------|--------|--------|--------|--------|--------|--------|--------|--------|
D|--------|--------|--------|--------|--------|--------|--------|--------|--------|
A|--------|--------|--------|--------|--------|--------|--------|--------|--------|
E|--------|--------|--------|--------|--------|--------|--------|--------|--------|


G|--------|--------|--------|--------|--------|--------|--------|--------|--------|
D|--------|--------|--------|--------|--------|--------|--------|--------|--------|
A|--------|--------|--------|--------|--------|--------|--------|--------|--------|
E|--------|--------|--------|--------|--------|--------|--------|--------|--------|


G|--------|--------|--------|--------|--------|--------|--------|--------|--------|
D|--------|--------|--------|--------|--------|--------|--------|--------|--------|
A|--------|--------|--------|--------|--------|--------|--------|--------|--------|
E|--------|--------|--------|--------|--------|--------|--------|--------|--------|


G|--------|--------|--------|--------|--------|--------|--------|--------|--------|
D|--------|--------|--------|--------|--------|--------|--------|--------|--------|
A|--------|--------|--------|--------|--------|--------|--------|--------|--------|
E|--------|--------|--------|--------|--------|--------|--------|--------|--------|


G|--------|--------|--------|--------|--------|--------|--------|--------|--------|
D|--------|--------|--------|--------|--------|--------|--------|--------|--------|
A|--------|--------|--------|--------|--------|--------|--------|--------|--------|
E|--------|--------|--------|--------|--------|--------|--------|--------|--------|


G|--------|--------|--------|--------|--------|--------|--------|--------|--------|
D|--------|--------|--------|--------|--------|--------|--------|--------|--------|
A|--------|--------|--------|--------|--------|--------|--------|--------|--------|
E|--------|--------|--------|--------|--------|--------|--------|--------|--------|


G|--------|--------|--------|--------|--------|--------|--------|--------|--------|
D|--------|--------|--------|--------|--------|--------|--------|--------|--------|
A|--------|--------|--------|--------|--------|--------|--------|--------|--------|
E|--------|--------|--------|--------|--------|--------|--------|--------|--------|


G|--------|
D|--------|
A|--------|
E|--------|