Menu:

 

Search:

 

alkaline trio - crawl:

 



Title: Crawl
Artist: 
Album: From Here to Infirmary
Author: Alkaline Trio


Track 1: Guitar

E|---------------------------------|---------------------------------|---------------------------------|
B|---------------------------------|---------------------------------|---------------------------------|
G|---------------------------------|---------------------------------|---------------------------------|
D|-6---6---6---6---6---6---6---6---|-4---4---4---4---2---2---2---2---|-4---4---4---4---4---4---4---4---|
A|-4---4---4---4---4---4---4---4---|-0---0---0---0---0---0---0---0---|-2---2---2---2---2---2---2---2---|
E|---------------------------------|---------------------------------|---------------------------------|


E|---------------------------------|---------------------------------|---------------------------------|
B|---------------------------------|---------------------------------|---------------------------------|
G|---------------------------------|---------------------------------|---------------------------------|
D|-6---6---4---4---1---1---2---2---|-6---6---6---6---6---6---6---6---|-4---4---4---4---2---2---2---2---|
A|-0---0---0---0---0---0---0---0---|-4---4---4---4---4---4---4---4---|-0---0---0---0---0---0---0---0---|
E|---------------------------------|---------------------------------|---------------------------------|


E|---------------------------------|---------------------------------|---------------------------------|
B|---------------------------------|---------------------------------|---------------------------------|
G|-1---1---1---1---1---1---1---1---|-2---2---2---2---1---1---1---1---|---------------------------------|
D|-2---2---2---2---2---2---2---2---|-2---2---2---2---2---2---2---2---|-6---6---6---6---6---6---6---6---|
A|-2---2---2---2---2---2---2---2---|-2---2---2---2---2---2---2---2---|-4---4---4---4---4---4---4---4---|
E|-0---0---0---0---0---0---0---0---|-0---0---0---0---0---0---0---0---|---------------------------------|


E|---------------------------------|---------------------------------|---------------------------------|
B|---------------------------------|---------------------------------|---------------------------------|
G|---------------------------------|---------------------------------|---------------------------------|
D|-4---4---4---4---2---2---2---2---|-4---4---4---4---4---4---4---4---|-6---6---4---4---1---1---2---2---|
A|-0---0---0---0---0---0---0---0---|-2---2---2---2---2---2---2---2---|-0---0---0---0---0---0---0---0---|
E|---------------------------------|---------------------------------|---------------------------------|


E|---------------------------------|---------------------------------|---------------------------------|
B|---------------------------------|---------------------------------|---------------------------------|
G|---------------------------------|---------------------------------|-1---1---1---1---1---1---1---1---|
D|-6---6---6---6---6---6---6---6---|-4---4---4---4---2---2---2---2---|-2---2---2---2---2---2---2---2---|
A|-4---4---4---4---4---4---4---4---|-0---0---0---0---0---0---0---0---|-2---2---2---2---2---2---2---2---|
E|---------------------------------|---------------------------------|-0---0---0---0---0---0---0---0---|


E|---------------------------------|--------|--------|--------|--------|--------|--------|
B|---------------------------------|--------|--------|--------|--------|--------|--------|
G|-2---2---2---2---1---1---1---1---|--------|--------|--------|--------|--------|--------|
D|-2---2---2---2---2---2---2---2---|-4------|-4------|-2------|-2------|--------|--------|
A|-2---2---2---2---2---2---2---2---|-2------|-2------|-0------|-0------|--------|--------|
E|-0---0---0---0---0---0---0---0---|--------|--------|--------|--------|--------|--------|


E|--------|--------|--------|--------|--------|--------|--------|--------|--------|
B|--------|--------|--------|--------|--------|--------|--------|--------|--------|
G|--------|--------|--------|--------|--------|--------|--------|--------|--------|
D|--------|--------|--------|--------|--------|--------|--------|--------|--------|
A|--------|--------|--------|--------|--------|--------|--------|--------|--------|
E|--------|--------|--------|--------|--------|--------|--------|--------|--------|


E|--------|---------------------------------|---------------------------------|---------------------------------|
B|--------|---------------------------------|---------------------------------|---------------------------------|
G|--------|---------------------------------|---------------------------------|---------------------------------|
D|--------|-4---4---4---4---4---4---4---4---|-7---7---7---7---6---6---6---6---|-2---2---2---2---2---2---2---2---|
A|--------|-2---2---2---2---2---2---2---2---|-4---4---4---4---4---4---4---4---|-0---0---0---0---0---0---0---0---|
E|--------|---------------------------------|---------------------------------|---------------------------------|


E|---------------------------------|---------------------------------|---------------------------------|
B|---------------------------------|---------------------------------|---------------------------------|
G|---------------------------------|---------------------------------|---------------------------------|
D|-2---2---2---2---2---2---2---2---|-6---6---6---6---6---6---6---6---|-4---4---4---4---2---2---2---2---|
A|-0---0---0---0---0---0---0---0---|-4---4---4---4---4---4---4---4---|-0---0---0---0---0---0---0---0---|
E|---------------------------------|---------------------------------|---------------------------------|


E|---------------------------------|---------------------------------|---------------------------------|
B|---------------------------------|---------------------------------|---------------------------------|
G|---------------------------------|---------------------------------|---------------------------------|
D|-4---4---4---4---4---4---4---4---|-6---6---4---4---1---1---2---2---|-6---6---6---6---6---6---6---6---|
A|-2---2---2---2---2---2---2---2---|-0---0---0---0---0---0---0---0---|-4---4---4---4---4---4---4---4---|
E|---------------------------------|---------------------------------|---------------------------------|


E|---------------------------------|---------------------------------|---------------------------------|
B|---------------------------------|---------------------------------|---------------------------------|
G|---------------------------------|-1---1---1---1---1---1---1---1---|-2---2---2---2---1---1---1---1---|
D|-4---4---4---4---2---2---2---2---|-2---2---2---2---2---2---2---2---|-2---2---2---2---2---2---2---2---|
A|-0---0---0---0---0---0---0---0---|-2---2---2---2---2---2---2---2---|-2---2---2---2---2---2---2---2---|
E|---------------------------------|-0---0---0---0---0---0---0---0---|-0---0---0---0---0---0---0---0---|


E|---------------------------------|---------------------------------|---------------------------------|
B|---------------------------------|---------------------------------|---------------------------------|
G|---------------------------------|---------------------------------|---------------------------------|
D|-4---4---4---4---4---4---4---4---|-7---7---7---7---6---6---6---6---|-2---2---2---2---9---9---9---9---|
A|-2---2---2---2---2---2---2---2---|-4---4---4---4---4---4---4---4---|-0---0---0---0---0---0---0---0---|
E|---------------------------------|---------------------------------|---------------------------------|


E|---------------------------------|---------------------------------|---------------------------------|
B|---------------------------------|---------------------------------|---------------------------------|
G|---------------------------------|---------------------------------|---------------------------------|
D|-7---7---7---7---6---6---6---6---|-4---4---4---4---4---4---4---4---|-6---6---6---6---6---6---6---6---|
A|-0---0---0---0---0---0---0---0---|-2---2---2---2---2---2---2---2---|-4---4---4---4---4---4---4---4---|
E|---------------------------------|---------------------------------|---------------------------------|


E|---------------------------------|---------------------------------|---------------------------------|
B|---------------------------------|---------------------------------|---------------------------------|
G|---------------------------------|---------------------------------|---------------------------------|
D|-2---2---2---2---2---2---2---2---|-4---4---4---2---2---2---2---2---|-4---4---4---4---4---4---4---4---|
A|-0---0---0---0---0---0---0---0---|-0---0---0---0---0---0---0---0---|-2---2---2---2---2---2---2---2---|
E|---------------------------------|---------------------------------|---------------------------------|


E|---------------------------------|---------------------------------|---------------------------------|
B|---------------------------------|---------------------------------|---------------------------------|
G|---------------------------------|---------------------------------|---------------------------------|
D|-7---7---7---7---6---6---6---6---|-2---2---2---2---9---9---9---9---|-7---7---7---7---6---6---6---6---|
A|-4---4---4---4---4---4---4---4---|-0---0---0---0---0---0---0---0---|-0---0---0---0---0---0---0---0---|
E|---------------------------------|---------------------------------|---------------------------------|


E|---------------------------------|---------------------------------|---------------------------------|
B|---------------------------------|---------------------------------|---------------------------------|
G|---------------------------------|---------------------------------|---------------------------------|
D|-4---4---4---4---4---4---4---4---|-6---6---6---6---6---6---6---6---|-2---2---2---2---2---2---2---2---|
A|-2---2---2---2---2---2---2---2---|-4---4---4---4---4---4---4---4---|-0---0---0---0---0---0---0---0---|
E|---------------------------------|---------------------------------|---------------------------------|


E|---------------------------------|---------------------------------|---------------------------------|
B|---------------------------------|---------------------------------|---------------------------------|
G|---------------------------------|---------------------------------|---------------------------------|
D|-4---4---4---2---2---2---2---2---|-4---4---4---4---4---4---4---4---|-4---4---4---4---4---4---4-------|
A|-0---0---0---0---0---0---0---0---|-2---2---2---2---2---2---2---2---|-2---2---2---2---2---2---2-------|
E|---------------------------------|---------------------------------|---------------------------------|


E|---------------------------------|---------------------------------|---------------------------------|
B|---------------------------------|---------------------------------|---------------------------------|
G|---------------------------------|-9---9---9---8---8---8---9---9---|-9---9---9---9---9---9---9---9---|
D|-2---2---2---2---2---2---2---2---|-7---7---7---7---7---7---7---7---|-9---9---9---9---9---9---9---9---|
A|-2---2---2---2---2---2---2---2---|-0---0---0---0---0---0---0---0---|-7---7---7---7---7---7---7---7---|
E|-0---0---0---0---0---0---0---0---|---------------------------------|-0---0---0---0---0---0---0---0---|


E|---------------------------------|---------------------------------|---------------------------------|
B|---------------------------------|---------------------------------|---------------------------------|
G|---------------------------------|-4---4---4---4---4---4---4---4---|-6---6---6---6---4---4---4---4---|
D|-6---6---6---6---6---6---6---6---|-4---4---4---4---4---4---4---4---|-6---6---6---6---4---4---4---4---|
A|-4---4---4---4---4---4---4---4---|-2---2---2---2---2---2---2---2---|-4---4---4---4---2---2---2---2---|
E|---------------------------------|---------------------------------|---------------------------------|


E|---------------------------------|---------------------------------|---------------------------------|
B|---------------------------------|---------------------------------|---------------------------------|
G|---------------------------------|---------------------------------|---------------------------------|
D|-2---2---2---2---2---2---2---2---|-4---4---4---4---2---2---2---2---|-2---2---2---2---2---2---2---2---|
A|-0---0---0---0---0---0---0---0---|-0---0---0---0---0---0---0---0---|-2---2---2---2---2---2---2---2---|
E|---------------------------------|---------------------------------|-0---0---0---0---0---0---0---0---|


E|---------------------------------|---------------------------------|---------------------------------|
B|---------------------------------|---------------------------------|---------------------------------|
G|-9---9---9---8---8---8---9---9---|-9---9---9---9---9---9---9---9---|---------------------------------|
D|-7---7---7---7---7---7---7---7---|-9---9---9---9---9---9---9---9---|-6---6---6---6---6---6---6---6---|
A|-0---0---0---0---0---0---0---0---|-7---7---7---7---7---7---7---7---|-4---4---4---4---4---4---4---4---|
E|---------------------------------|-0---0---0---0---0---0---0---0---|---------------------------------|


E|---------------------------------|---------------------------------|---------------------------------|
B|---------------------------------|---------------------------------|---------------------------------|
G|-4---4---4---4---4---4---4---4---|-6---6---6---6---4---4---4---4---|---------------------------------|
D|-4---4---4---4---4---4---4---4---|-6---6---6---6---4---4---4---4---|-2---2---2---2---2---2---2---2---|
A|-2---2---2---2---2---2---2---2---|-4---4---4---4---2---2---2---2---|-0---0---0---0---0---0---0---0---|
E|---------------------------------|---------------------------------|---------------------------------|


E|---------------------------------|---------------------------------|---------------------------------|
B|---------------------------------|---------------------------------|---------------------------------|
G|---------------------------------|-9---9---9---9---9---9---9---9---|-8---8---8---8---9---9---9---9---|
D|-4---4---4---4---2---2---2---2---|-7---7---7---7---7---7---7---7---|-7---7---7---7---7---7---7---7---|
A|-0---0---0---0---0---0---0---0---|-0---0---0---0---0---0---0---0---|-0---0---0---0---0---0---0---0---|
E|---------------------------------|---------------------------------|---------------------------------|


E|---------------------------|---------------------------|---------------------------|
B|---------------------------|---------------------------|---------------------------|
G|---------------------------|---------------------------|---------------------------|
D|-1---1--------2---2--------|-4---4--------2---2--------|-1---1--------4---4--------|
A|-0---0--------0---0--------|-2---2--------0---0--------|-0---0--------2---2--------|
E|---------------------------|---------------------------|---------------------------|


E|---------------------------------|---------------------------|---------------------------|
B|---------------------------------|---------------------------|---------------------------|
G|---------------------------------|---------------------------|---------------------------|
D|---------------------------------|-1---1--------2---2--------|-4---4--------2---2--------|
A|-2---2---2---2---2---2---2---2---|-0---0--------0---0--------|-2---2--------0---0--------|
E|-0---0---0---0---0---0---0---0---|---------------------------|---------------------------|


E|---------------------------|---------------------------------|---------------------------------|
B|---------------------------|---------------------------------|---------------------------------|
G|---------------------------|---------------------------------|---------------------------------|
D|-1---1--------4---4--------|---------------------------------|-4---4---4---4---4---4---4---4---|
A|-0---0--------2---2--------|-2---2---2---2---2---2---2---2---|-2---2---2---2---2---2---2---2---|
E|---------------------------|-0---0---0---0---0---0---0---0---|---------------------------------|


E|---------------------------------|---------------------------------|---------------------------------|
B|---------------------------------|---------------------------------|---------------------------------|
G|---------------------------------|---------------------------------|---------------------------------|
D|-7---7---7---7---6---6---6---6---|-2---2---2---2---9---9---9---9---|-7---7---7---7---6---6---6---6---|
A|-4---4---4---4---4---4---4---4---|-0---0---0---0---0---0---0---0---|-0---0---0---0---0---0---0---0---|
E|---------------------------------|---------------------------------|---------------------------------|


E|---------------------------------|---------------------------------|---------------------------------|
B|---------------------------------|---------------------------------|---------------------------------|
G|---------------------------------|---------------------------------|---------------------------------|
D|-4---4---4---4---4---4---4---4---|-6---6---6---6---6---6---6---6---|-2---2---2---2---2---2---2---2---|
A|-2---2---2---2---2---2---2---2---|-4---4---4---4---4---4---4---4---|-0---0---0---0---0---0---0---0---|
E|---------------------------------|---------------------------------|---------------------------------|


E|---------------------------------|---------------------------------|---------------------------------|
B|---------------------------------|---------------------------------|---------------------------------|
G|---------------------------------|---------------------------------|---------------------------------|
D|-4---4---4---2---2---2---2---2---|-4---4---4---4---4---4---4---4---|-7---7---7---7---6---6---6---6---|
A|-0---0---0---0---0---0---0---0---|-2---2---2---2---2---2---2---2---|-4---4---4---4---4---4---4---4---|
E|---------------------------------|---------------------------------|---------------------------------|


E|---------------------------------|---------------------------------|---------------------------------|
B|---------------------------------|---------------------------------|---------------------------------|
G|---------------------------------|---------------------------------|---------------------------------|
D|-2---2---2---2---9---9---9---9---|-7---7---7---7---6---6---6---6---|-4---4---4---4---4---4---4---4---|
A|-0---0---0---0---0---0---0---0---|-0---0---0---0---0---0---0---0---|-2---2---2---2---2---2---2---2---|
E|---------------------------------|---------------------------------|---------------------------------|


E|---------------------------------|---------------------------------|---------------------------------|
B|---------------------------------|---------------------------------|---------------------------------|
G|---------------------------------|---------------------------------|---------------------------------|
D|-6---6---6---6---6---6---6---6---|-2---2---2---2---2---2---2---2---|-4---4---4---2---2---2---2---2---|
A|-4---4---4---4---4---4---4---4---|-0---0---0---0---0---0---0---0---|-0---0---0---0---0---0---0---0---|
E|---------------------------------|---------------------------------|---------------------------------|


E|---------------------------------|---------------------------------|---------------------------------|
B|---------------------------------|---------------------------------|---------------------------------|
G|---------------------------------|---------------------------------|---------------------------------|
D|-4---4---4---4---4---4---4---4---|-4---4---4---4---4---4---4-------|-2---2---2---2---2---2---2---2---|
A|-2---2---2---2---2---2---2---2---|-2---2---2---2---2---2---2-------|-2---2---2---2---2---2---2---2---|
E|---------------------------------|---------------------------------|-0---0---0---0---0---0---0---0---|


E|---------------------------------|---------------------------------|---------------------------------|
B|---------------------------------|---------------------------------|---------------------------------|
G|-9---9---9---8---8---8---9---9---|-9---9---9---9---9---9---9---9---|---------------------------------|
D|-7---7---7---7---7---7---7---7---|-9---9---9---9---9---9---9---9---|-6---6---6---6---6---6---6---6---|
A|-0---0---0---0---0---0---0---0---|-7---7---7---7---7---7---7---7---|-4---4---4---4---4---4---4---4---|
E|---------------------------------|-0---0---0---0---0---0---0---0---|---------------------------------|


E|---------------------------------|---------------------------------|---------------------------------|
B|---------------------------------|---------------------------------|---------------------------------|
G|-4---4---4---4---4---4---4---4---|-6---6---6---6---4---4---4---4---|---------------------------------|
D|-4---4---4---4---4---4---4---4---|-6---6---6---6---4---4---4---4---|-2---2---2---2---2---2---2---2---|
A|-2---2---2---2---2---2---2---2---|-4---4---4---4---2---2---2---2---|-0---0---0---0---0---0---0---0---|
E|---------------------------------|---------------------------------|---------------------------------|


E|---------------------------------|---------------------------------|---------------------------------|
B|---------------------------------|---------------------------------|---------------------------------|
G|---------------------------------|---------------------------------|-9---9---9---8---8---8---9---9---|
D|-4---4---4---4---2---2---2---2---|-2---2---2---2---2---2---2---2---|-7---7---7---7---7---7---7---7---|
A|-0---0---0---0---0---0---0---0---|-2---2---2---2---2---2---2---2---|-0---0---0---0---0---0---0---0---|
E|---------------------------------|-0---0---0---0---0---0---0---0---|---------------------------------|


E|---------------------------------|---------------------------------|---------------------------------|
B|---------------------------------|---------------------------------|---------------------------------|
G|-9---9---9---9---9---9---9---9---|---------------------------------|-4---4---4---4---4---4---4---4---|
D|-9---9---9---9---9---9---9---9---|-6---6---6---6---6---6---6---6---|-4---4---4---4---4---4---4---4---|
A|-7---7---7---7---7---7---7---7---|-4---4---4---4---4---4---4---4---|-2---2---2---2---2---2---2---2---|
E|-0---0---0---0---0---0---0---0---|---------------------------------|---------------------------------|


E|---------------------------------|---------------------------------|---------------------------------|
B|---------------------------------|---------------------------------|---------------------------------|
G|-6---6---6---6---4---4---4---4---|---------------------------------|---------------------------------|
D|-6---6---6---6---4---4---4---4---|-2---2---2---2---2---2---2---2---|-4---4---4---4---2---2---2---2---|
A|-4---4---4---4---2---2---2---2---|-0---0---0---0---0---0---0---0---|-0---0---0---0---0---0---0---0---|
E|---------------------------------|---------------------------------|---------------------------------|


E|---------------------------------|---------------------------------|--------|--------|
B|---------------------------------|---------------------------------|--------|--------|
G|-9---9---9---9---9---9---9---9---|-8---8---8---8---9---9---9---9---|-9------|--------|
D|-7---7---7---7---7---7---7---7---|-7---7---7---7---7---7---7---7---|-9------|--------|
A|-0---0---0---0---0---0---0---0---|-0---0---0---0---0---0---0---0---|-7------|--------|
E|---------------------------------|---------------------------------|-0------|--------|


E|--------|--------|--------|--------|--------|--------|--------|--------|--------|
B|--------|--------|--------|--------|--------|--------|--------|--------|--------|
G|--------|--------|--------|--------|--------|--------|--------|--------|--------|
D|--------|--------|--------|--------|--------|--------|--------|--------|--------|
A|--------|--------|--------|--------|--------|--------|--------|--------|--------|
E|--------|--------|--------|--------|--------|--------|--------|--------|--------|


E|--------|--------|--------|--------|---------------------------------|---------------------------------|
B|--------|--------|--------|--------|---------------------------------|---------------------------------|
G|--------|--------|--------|--------|-9---9---9---9---9---9---9---9---|-11--11--11--11--11--11--11--11--|
D|--------|--------|--------|--------|-9---9---9---9---9---9---9---9---|-9---9---9---9---9---9---9---9---|
A|--------|--------|--------|--------|---------------------------------|---------------------------------|
E|--------|--------|--------|--------|---------------------------------|---------------------------------|


E|---------------------------------|---------------------------------|---------------------------------|
B|---------------------------------|---------------------------------|---------------------------------|
G|-9---9---9---9---9---9---9---9---|-11--11--11--11--11--11--11--11--|-9---9---9---9---9---9---9---9---|
D|---------------------------------|---------------------------------|-9---9---9---9---9---9---9---9---|
A|-7---7---7---7---7---7---7---7---|-9---9---9---9---9---9---9---9---|---------------------------------|
E|---------------------------------|---------------------------------|---------------------------------|


E|---------------------------------|---------------------------------|------------------------------|
B|---------------------------------|---------------------------------|------------------------------|
G|-11--11--11--11--11--11--11--11--|-9---9---9---9---9---9---9---9---|-11--11--11--11--11--9---8----|
D|-9---9---9---9---9---9---9---9---|---------------------------------|------------------------------|
A|---------------------------------|-7---7---7---7---7---7---7---7---|-9---9---9---9---9---7---6----|
E|---------------------------------|---------------------------------|------------------------------|


E|--------|--------|--------|
B|--------|--------|--------|
G|-9------|-9------|--------|
D|--------|--------|--------|
A|-7------|-7------|--------|
E|--------|--------|--------|





Track 2: Piano

E|--------|--------|--------|--------|--------|--------|--------|--------|--------|
B|--------|--------|--------|--------|--------|--------|--------|--------|--------|
G|--------|--------|--------|--------|--------|--------|--------|--------|--------|
D|--------|--------|--------|--------|--------|--------|--------|--------|--------|
A|--------|--------|--------|--------|--------|--------|--------|--------|--------|
E|--------|--------|--------|--------|--------|--------|--------|--------|--------|


E|--------|--------|--------|--------|--------|--------|--------|--------|--------|
B|--------|--------|--------|--------|--------|--------|--------|--------|--------|
G|--------|--------|--------|--------|--------|--------|--------|--------|--------|
D|--------|--------|--------|--------|--------|--------|--------|--------|--------|
A|--------|--------|--------|--------|--------|--------|--------|--------|--------|
E|--------|--------|--------|--------|--------|--------|--------|--------|--------|


E|--------|--------|--------|--------|--------|--------|--------|--------|--------|
B|--------|--------|--------|--------|--------|--------|--------|--------|--------|
G|--------|--------|--------|--------|--------|--------|--------|--------|--------|
D|--------|--------|--------|--------|--------|--------|--------|--------|--------|
A|--------|--------|--------|--------|--------|--------|--------|--------|--------|
E|--------|--------|--------|--------|--------|--------|--------|--------|--------|


E|--------|--------|--------|--------|--------|--------|--------|--------|--------|
B|--------|--------|--------|--------|--------|--------|--------|--------|--------|
G|--------|--------|--------|--------|--------|--------|--------|--------|--------|
D|--------|--------|--------|--------|--------|--------|--------|--------|--------|
A|--------|--------|--------|--------|--------|--------|--------|--------|--------|
E|--------|--------|--------|--------|--------|--------|--------|--------|--------|


E|--------|--------|--------|--------|--------|--------|--------|--------|--------|
B|--------|--------|--------|--------|--------|--------|--------|--------|--------|
G|--------|--------|--------|--------|--------|--------|--------|--------|--------|
D|--------|--------|--------|--------|--------|--------|--------|--------|--------|
A|--------|--------|--------|--------|--------|--------|--------|--------|--------|
E|--------|--------|--------|--------|--------|--------|--------|--------|--------|


E|--------|--------|--------|--------|--------|--------|--------|--------|--------|
B|--------|--------|--------|--------|--------|--------|--------|--------|--------|
G|--------|--------|--------|--------|--------|--------|--------|--------|--------|
D|--------|--------|--------|--------|--------|--------|--------|--------|--------|
A|--------|--------|--------|--------|--------|--------|--------|--------|--------|
E|--------|--------|--------|--------|--------|--------|--------|--------|--------|


E|--------|--------|--------|--------|--------|--------|--------|--------|--------|
B|--------|--------|--------|--------|--------|--------|--------|--------|--------|
G|--------|--------|--------|--------|--------|--------|--------|--------|--------|
D|--------|--------|--------|--------|--------|--------|--------|--------|--------|
A|--------|--------|--------|--------|--------|--------|--------|--------|--------|
E|--------|--------|--------|--------|--------|--------|--------|--------|--------|


E|--------|--------|--------|--------|--------|--------|--------|--------|--------|
B|--------|--------|--------|--------|--------|--------|--------|--------|--------|
G|--------|--------|--------|--------|--------|--------|--------|--------|--------|
D|--------|--------|--------|--------|--------|--------|--------|--------|--------|
A|--------|--------|--------|--------|--------|--------|--------|--------|--------|
E|--------|--------|--------|--------|--------|--------|--------|--------|--------|


E|--------|--------|--------|--------|--------|--------|--------|--------|--------|
B|--------|--------|--------|--------|--------|--------|--------|--------|--------|
G|--------|--------|--------|--------|--------|--------|--------|--------|--------|
D|--------|--------|--------|--------|--------|--------|--------|--------|--------|
A|--------|--------|--------|--------|--------|--------|--------|--------|--------|
E|--------|--------|--------|--------|--------|--------|--------|--------|--------|


E|--------|--------|--------|--------|--------|--------|--------|--------|--------|
B|--------|--------|--------|--------|--------|--------|--------|--------|--------|
G|--------|--------|--------|--------|--------|--------|--------|--------|--------|
D|--------|--------|--------|--------|--------|--------|--------|--------|--------|
A|--------|--------|--------|--------|--------|--------|--------|--------|--------|
E|--------|--------|--------|--------|--------|--------|--------|--------|--------|


E|--------|--------|--------|--------|--------|--------|--------|--------|--------|
B|--------|--------|--------|--------|--------|--------|--------|--------|--------|
G|--------|--------|--------|--------|--------|--------|--------|--------|--------|
D|--------|--------|--------|--------|--------|--------|--------|--------|--------|
A|--------|--------|--------|--------|--------|--------|--------|--------|--------|
E|--------|--------|--------|--------|--------|--------|--------|--------|--------|


E|--------|--------|--------|--------|--------|--------|--------|--------|--------|
B|--------|--------|--------|--------|--------|--------|--------|--------|--------|
G|--------|--------|--------|--------|--------|--------|--------|--------|--------|
D|--------|--------|--------|--------|--------|--------|--------|--------|--------|
A|--------|--------|--------|--------|--------|--------|--------|--------|--------|
E|--------|--------|--------|--------|--------|--------|--------|--------|--------|


E|--------|--------|--------|--------|--------|--------|--------|--------|--------|
B|--------|--------|--------|--------|--------|--------|--------|--------|--------|
G|--------|--------|--------|--------|--------|--------|--------|--------|--------|
D|--------|--------|--------|--------|--------|--------|--------|--------|--------|
A|--------|--------|--------|--------|--------|--------|--------|--------|--------|
E|--------|--------|--------|--------|--------|--------|--------|--------|--------|


E|--------|--------|--------|--------|--------|--------|--------|--------|--------|
B|--------|--------|--------|--------|--------|--------|--------|--------|--------|
G|--------|--------|--------|--------|--------|--------|--------|--------|--------|
D|--------|--------|--------|--------|--------|--------|--------|--------|--------|
A|--------|--------|--------|--------|--------|--------|--------|--------|--------|
E|--------|--------|--------|--------|--------|--------|--------|--------|--------|


E|-------7-----|-7------|-7------|--------|--------|-----------0---------|-----------0---------|
B|-------------|--------|--------|--------|--------|------0----0----0----|------0---------0----|
G|-------8-----|-9------|-9------|--------|--------|----------------1----|-----------2----1----|
D|-------------|--------|--------|--------|--------|-2-------------------|-1-------------------|
A|-------------|--------|--------|--------|--------|---------------------|---------------------|
E|-------------|--------|--------|--------|--------|---------------------|---------------------|


E|-----------0---------|-----------0---------|-----------0---------|-----------0---------|
B|------0---------0----|------0---------0----|------0----0----0----|------0---------0----|
G|---------------------|---------------------|----------------1----|-----------2----1----|
D|-----------2----4----|-----------4----1----|-2-------------------|-1-------------------|
A|-0-------------------|-2-------------------|---------------------|---------------------|
E|---------------------|---------------------|---------------------|---------------------|


E|-----------0---------|-----------0---------|-----------0---------|-----------0---------|
B|------0---------0----|------0---------0----|------0----0----0----|------0---------0----|
G|---------------------|---------------------|----------------1----|-----------2----1----|
D|-----------2----4----|-----------4----1----|-2-------------------|-1-------------------|
A|-0-------------------|-2-------------------|---------------------|---------------------|
E|---------------------|---------------------|---------------------|---------------------|


E|-----------0---------|-----------0---------|-----------0---------|-----------0---------|
B|------0---------0----|------0---------0----|------0----0----0----|------0---------0----|
G|---------------------|---------------------|----------------1----|-----------2----1----|
D|-----------2----4----|-----------4----1----|-2-------------------|-1-------------------|
A|-0-------------------|-2-------------------|---------------------|---------------------|
E|---------------------|---------------------|---------------------|---------------------|


E|-----------0---------|-----------0---------|-0------|-0------|--------|
B|------0---------0----|------0---------0----|-0------|-0------|--------|
G|---------------------|---------------------|-1------|-1------|--------|
D|-----------2----4----|-----------4----1----|-2------|-2------|--------|
A|-0-------------------|-2-------------------|-2------|-2------|--------|
E|---------------------|---------------------|-0------|-0------|--------|





Track 3: Bass

G|---------------------------------|---------------------------------|---------------------------------|
D|-----------------6---6-----------|-----------------2---2-----------|-----------------4---4-----------|
A|-4---4---4---4-----------4---4---|-0---0---0---0-----------0---0---|-2---2---2---2-----------2---2---|
E|---------------------------------|---------------------------------|---------------------------------|


G|---------------------------------|---------------------------------|---------------------------------|
D|-----------------2---2-----------|-----------------6---6-----------|-----------------2---2-----------|
A|-0---0---0---0-----------0---2---|-4---4---4---4-----------4---4---|-0---0---0---0-----------0---0---|
E|---------------------------------|---------------------------------|---------------------------------|


G|---------------------------------|---------------------------------|---------------------------------|
D|-----------------9---9-----------|---------------------------------|-----------------6---6-----------|
A|---------7---7-----------7---7---|-6---7---6---7---9---7---6---7---|-4---4---4---4-----------4---4---|
E|-0---0---------------------------|---------------------------------|---------------------------------|


G|---------------------------------|---------------------------------|---------------------------------|
D|-----------------2---2-----------|-----------------4---4-----------|-----------------2---2-----------|
A|-0---0---0---0-----------0---0---|-2---2---2---2-----------2---2---|-0---0---0---0-----------0---2---|
E|---------------------------------|---------------------------------|---------------------------------|


G|---------------------------------|---------------------------------|---------------------------------|
D|-----------------6---6-----------|-----------------2---2-----------|-----------------9---9-----------|
A|-4---4---4---4-----------4---4---|-0---0---0---0-----------0---0---|---------7---7-----------7---7---|
E|---------------------------------|---------------------------------|-0---0---------------------------|


G|---------------------------------|---------------------------------|---------------------------------|
D|---------------------------------|---------------------------------|---------------------------------|
A|-6---7---6---7---9---7---6---7---|-2---2---2---2---2---2---2---2---|-4---4---4---4---4---4---4---4---|
E|---------------------------------|---------------------------------|---------------------------------|


G|---------------------------------|---------------------------------|---------------------------------|
D|---------------------------------|---------------------------------|---------------------------------|
A|-0---0---0---0---0---0---0---0---|-0---0---0---0---0---0---0---0---|-2---2---2---2---2---2---2---2---|
E|---------------------------------|---------------------------------|---------------------------------|


G|---------------------------------|---------------------------------|---------------------------------|
D|---------------------------------|---------------------------------|---------------------------------|
A|-4---4---4---4---4---4---4---4---|-0---0---0---0---0---0---0---0---|-0---0---0---0---0---0---0---0---|
E|---------------------------------|---------------------------------|---------------------------------|


G|---------------------------------|---------------------------------|---------------------------------|
D|---------------------------------|---------------------------------|---------------------------------|
A|-2---2---2---2---2---2---2---2---|-4---4---4---4---4---4---4---4---|-0---0---0---0---0---0---0---0---|
E|---------------------------------|---------------------------------|---------------------------------|


G|---------------------------------|---------------------------------|---------------------------------|
D|---------------------------------|---------------------------------|---------------------------------|
A|-0---0---0---0---0---0---0---0---|-2---2---2---2---2---2---2---2---|-4---4---4---4---4---4---4---4---|
E|---------------------------------|---------------------------------|---------------------------------|


G|---------------------------------|---------------------------------|---------------------------------|
D|---------------------------------|---------------------------------|---------------------------------|
A|-0---0---0---0---0---0---0---0---|-0---0---0---0---0---0---0---0---|-2---2---2---2---2---2---2---2---|
E|---------------------------------|---------------------------------|---------------------------------|


G|---------------------------------|---------------------------------|---------------------------------|
D|---------------------------------|---------------------------------|---------------------------------|
A|-4---4---4---4---4---4---4---4---|-0---0---0---0---0---0---0---0---|-0---0---0---0---0---0---0---0---|
E|---------------------------------|---------------------------------|---------------------------------|


G|---------------------------------|---------------------------------|---------------------------------|
D|-----------------6---6-----------|-----------------2---2-----------|-----------------4---4-----------|
A|-4---4---4---4-----------4---4---|-0---0---0---0-----------0---0---|-2---2---2---2-----------2---2---|
E|---------------------------------|---------------------------------|---------------------------------|


G|---------------------------------|---------------------------------|---------------------------------|
D|-----------------2---2-----------|-----------------6---6-----------|-----------------2---2-----------|
A|-0---0---0---0-----------0---2---|-4---4---4---4-----------4---4---|-0---0---0---0-----------0---0---|
E|---------------------------------|---------------------------------|---------------------------------|


G|---------------------------------|---------------------------------|---------------------------------|
D|-----------------9---9-----------|---------------------------------|---------------------------------|
A|---------7---7-----------7---7---|---------7---7---6---6---7---7---|-2---2---2---2---2---2---2---2---|
E|-0---0---------------------------|-0---0---------------------------|---------------------------------|


G|---------------------------------|---------------------------------|---------------------------------|
D|---------------------------------|---------------------------------|---------------------------------|
A|-4---4---4---4---4---4---4---4---|-0---0---0---0---0---0---0---0---|-0---0---0---0---0---0---0---0---|
E|---------------------------------|---------------------------------|---------------------------------|


G|---------------------------------|---------------------------------|---------------------------------|
D|---------------------------------|---------------------------------|---------------------------------|
A|-2---2---2---2---2---2---2---2---|-4---4---4---4---4---4---4---4---|-0---0---0---0---0---0---0---0---|
E|---------------------------------|---------------------------------|---------------------------------|


G|---------------------------------|---------------------------------|---------------------------------|
D|---------------------------------|---------------------------------|---------------------------------|
A|-0---0---0---0---0---0---0---0---|-2---2---2---2---2---2---2---2---|-4---4---4---4---4---4---4---4---|
E|---------------------------------|---------------------------------|---------------------------------|


G|---------------------------------|---------------------------------|---------------------------------|
D|---------------------------------|---------------------------------|---------------------------------|
A|-0---0---0---0---0---0---0---0---|-0---0---0---0---0---0---0---0---|-2---2---2---2---2---2---2---2---|
E|---------------------------------|---------------------------------|---------------------------------|


G|---------------------------------|---------------------------------|---------------------------------|
D|---------------------------------|---------------------------------|---------------------------------|
A|-4---4---4---4---4---4---4---4---|-0---0---0---0---0---0---0---0---|-0---0---0---0---0---0---0---0---|
E|---------------------------------|---------------------------------|---------------------------------|


G|---------------------------------|---------------------------------|---------------------------------|
D|---------------------------------|---------------------------------|---------------------------------|
A|-2---2---2---2---2---2---2---2---|-2---2---2---2---2---2---2-------|---------------------------------|
E|---------------------------------|---------------------------------|-0---0---0---0---0---0---0---0---|


G|---------------------------------|---------------------------------|---------------------------------|
D|---------7---7-----------7---7---|-------------------------9---9---|---------6---6-----------6---6---|
A|-0---0-----------0---0-----------|---------7---7-------------------|-4---4-----------4---4-----------|
E|---------------------------------|-0---0-----------0---0-----------|---------------------------------|


G|---------------------------------|---------------------------------|-----------------9---9-----------|
D|-----------------4---4---4---4---|-----------------4---4---4---4---|---------7---7-----------7---7---|
A|-2---2---2---2-------------------|-2---2---2---2-------------------|-0---0---------------------------|
E|---------------------------------|---------------------------------|---------------------------------|


G|---------------------------------|---------------------------------|---------------------------------|
D|---------7---7-----------7---7---|-------------------------9---9---|---------------------------------|
A|-0---0-----------0---0-----------|---------7---7-------------------|-0---0---0---0---0---0---0---0---|
E|---------------------------------|-0---0-----------0---0-----------|---------------------------------|


G|---------------------------------|---------------------------------|---------------------------------|
D|-------------------------9---9---|---------6---6-----------6---6---|-----------------4---4---4---4---|
A|---------7---7-------------------|-4---4-----------4---4-----------|-2---2---2---2-------------------|
E|-0---0-----------0---0-----------|---------------------------------|---------------------------------|


G|---------------------------------|---------------------------------|---------------------------------|
D|-----------------4---4---4---4---|---------------------------------|---------------------------------|
A|-2---2---2---2-------------------|-0---0---0---0---0---0---0---0---|-0---0---0---0---0---0---0---0---|
E|---------------------------------|---------------------------------|---------------------------------|


G|---------------------------------|---------------------------------|---------------------------|
D|---------------------------------|---------------------------------|---------------------------|
A|-0---0---0---0---0---0---0---0---|-0---0---0---0---0---0---0---0---|-6---6--------7---7--------|
E|---------------------------------|---------------------------------|---------------------------|


G|---------------------------|---------------------------|---------------------------------|
D|---------------------------|---------------------------|---------------------------------|
A|-9---9--------7---7--------|-6---6--------9---9--------|-7---7---7---7---7---7---7---7---|
E|---------------------------|---------------------------|---------------------------------|


G|---------------------------|---------------------------|---------------------------|
D|---------------------------|---------------------------|---------------------------|
A|-6---6--------7---7--------|-9---9--------7---7--------|-6---6--------9---9--------|
E|---------------------------|---------------------------|---------------------------|


G|---------------------------------|---------------------------------|---------------------------------|
D|---------------------------------|---------------------------------|---------------------------------|
A|-7---7---7---7---7---7---7---7---|-2---2---2---2---2---2---2---2---|-4---4---4---4---4---4---4---4---|
E|---------------------------------|---------------------------------|---------------------------------|


G|---------------------------------|---------------------------------|---------------------------------|
D|---------------------------------|---------------------------------|---------------------------------|
A|-0---0---0---0---0---0---0---0---|-0---0---0---0---0---0---0---0---|-2---2---2---2---2---2---2---2---|
E|---------------------------------|---------------------------------|---------------------------------|


G|---------------------------------|---------------------------------|---------------------------------|
D|---------------------------------|---------------------------------|---------------------------------|
A|-4---4---4---4---4---4---4---4---|-0---0---0---0---0---0---0---0---|-0---0---0---0---0---0---0---0---|
E|---------------------------------|---------------------------------|---------------------------------|


G|---------------------------------|---------------------------------|---------------------------------|
D|---------------------------------|---------------------------------|---------------------------------|
A|-2---2---2---2---2---2---2---2---|-4---4---4---4---4---4---4---4---|-0---0---0---0---0---0---0---0---|
E|---------------------------------|---------------------------------|---------------------------------|


G|---------------------------------|---------------------------------|---------------------------------|
D|---------------------------------|---------------------------------|---------------------------------|
A|-0---0---0---0---0---0---0---0---|-2---2---2---2---2---2---2---2---|-4---4---4---4---4---4---4---4---|
E|---------------------------------|---------------------------------|---------------------------------|


G|---------------------------------|---------------------------------|---------------------------------|
D|---------------------------------|---------------------------------|---------------------------------|
A|-0---0---0---0---0---0---0---0---|-0---0---0---0---0---0---0---0---|-2---2---2---2---2---2---2---2---|
E|---------------------------------|---------------------------------|---------------------------------|


G|---------------------------------|---------------------------------|---------------------------------|
D|---------------------------------|---------------------------------|---------7---7-----------7---7---|
A|-2---2---2---2---2---2---2-------|---------------------------------|-0---0-----------0---0-----------|
E|---------------------------------|-0---0---0---0---0---0---0---0---|---------------------------------|


G|---------------------------------|---------------------------------|---------------------------------|
D|-------------------------9---9---|---------6---6-----------6---6---|-----------------4---4---4---4---|
A|---------7---7-------------------|-4---4-----------4---4-----------|-2---2---2---2-------------------|
E|-0---0-----------0---0-----------|---------------------------------|---------------------------------|


G|---------------------------------|-----------------9---9-----------|---------------------------------|
D|-----------------4---4---4---4---|---------7---7-----------7---7---|---------7---7-----------7---7---|
A|-2---2---2---2-------------------|-0---0---------------------------|-0---0-----------0---0-----------|
E|---------------------------------|---------------------------------|---------------------------------|


G|---------------------------------|---------------------------------|---------------------------------|
D|-------------------------9---9---|---------------------------------|-------------------------9---9---|
A|---------7---7-------------------|-0---0---0---0---0---0---0---0---|---------7---7-------------------|
E|-0---0-----------0---0-----------|---------------------------------|-0---0-----------0---0-----------|


G|---------------------------------|---------------------------------|---------------------------------|
D|---------6---6-----------6---6---|-----------------4---4---4---4---|-----------------4---4---4---4---|
A|-4---4-----------4---4-----------|-2---2---2---2-------------------|-2---2---2---2-------------------|
E|---------------------------------|---------------------------------|---------------------------------|


G|---------------------------------|---------------------------------|---------------------------------|
D|---------------------------------|---------------------------------|---------------------------------|
A|-0---0---0---0---0---0---0---0---|-0---0---0---0---0---0---0---0---|-0---0---0---0---0---0---0---0---|
E|---------------------------------|---------------------------------|---------------------------------|


G|---------------------------------|---------------------------------|---------------------------------|
D|---------------------------------|---------------------------------|---------------------------------|
A|-0---0---0---0---0---0---0---0---|-7---7---7---7---7---7---7---7---|-6---6---6---6---6---6---6---6---|
E|---------------------------------|---------------------------------|---------------------------------|


G|---------------------------------|---------------------------------|---------------------------------|
D|---------------------------------|---------------------------------|---------------------------------|
A|-0---0---0---0---0---0---0---0---|-2---2---2---2---2---2---2---2---|-7---7---7---7---7---7---7---7---|
E|---------------------------------|---------------------------------|---------------------------------|


G|---------------------------------|---------------------------------|---------------------------------|
D|---------------------------------|---------------------------------|---------------------------------|
A|-6---6---6---6---6---6---6---6---|-0---0---0---0---0---0---0---0---|-2---2---2---2---2---2---2---2---|
E|---------------------------------|---------------------------------|---------------------------------|


G|---------------------------------|---------------------------------|---------------------------------|
D|---------------------------------|---------------------------------|---------------------------------|
A|-7---7---7---7---7---7---7---7---|-6---6---6---6---6---6---6---6---|-0---0---0---0---0---0---0---0---|
E|---------------------------------|---------------------------------|---------------------------------|


G|---------------------------------|---------------------------------|---------------------------------|
D|---------------------------------|---------------------------------|---------------------------------|
A|-2---2---2---2---2---2---2---2---|-7---7---7---7---7---7---7---7---|-6---6---6---6---6---6---6---6---|
E|---------------------------------|---------------------------------|---------------------------------|


G|---------------------------------|---------------------------------|---------------------------------|
D|---------------------------------|---------------------------------|---------------------------------|
A|-0---0---0---0---0---0---0---0---|-2---2---2---2---2---2---2---2---|-7---7---7---7---7---7---7---7---|
E|---------------------------------|---------------------------------|---------------------------------|


G|---------------------------------|---------------------------------|---------------------------------|
D|---------------------------------|---------------------------------|---------------------------------|
A|-6---6---6---6---6---6---6---6---|-0---0---0---0---0---0---0---0---|-2---2---2---2---2---2---2---2---|
E|---------------------------------|---------------------------------|---------------------------------|


G|---------------------------------|---------------------------------|---------------------------------|
D|---------------------------------|---------------------------------|---------------------------------|
A|-7---7---7---7---7---7---7---7---|-6---6---6---6---6---6---6---6---|-0---0---0---0---0---0---0---0---|
E|---------------------------------|---------------------------------|---------------------------------|


G|---------------------------------|--------|--------|
D|---------------------------------|--------|--------|
A|-2---2---2---2---2---2---2---2---|-7------|-7------|
E|---------------------------------|-0------|-0------|