Menu:

 

Search:

 

alice cooper - poison:

 



Title: Poison
Artist: 
Album: Trash
Author: Desmond Child, Alice Cooper, John McCurry


Track 1: Distortion 2

E|--------|--------|--------|--------|---------------------------------|---------------------------------|
B|--------|--------|--------|--------|---------------------------------|---------------------------------|
G|--------|--------|--------|--------|-----------------9-------7-------|---------5-----------5-----------|
D|-7------|-7------|-7------|-7------|---------7-----------------------|-----5---5-------5---5-----------|
A|-5------|-5------|-5------|-5------|-----5-------5-------5-------5---|-9-----------9-----------7---5---|
E|--------|--------|--------|--------|---------------------------------|---------------------------------|


E|---------------------------------|---------------------------------|---------------------------------|
B|---------------------------------|---------------------------------|---------------------------------|
G|-----------------9-------7-------|---------5-----------5-----------|-----------------9-------7-------|
D|---------7-----------------------|-----5---5-------5---5-----------|---------7-----------------------|
A|-5---5-------5-------5-------5---|-9-----------9-----------7---5---|-----5-------5-------5-------5---|
E|---------------------------------|---------------------------------|-8-------------------------------|


E|---------------------------------|---------------------------------|---------------------------------|
B|---------------------------------|---------------------------------|---------------------------------|
G|---------5-----------5-----------|-----------------9-------7-------|---------5-----------5-----------|
D|-----5---5-------5---5-----------|---------7-----------------------|-----5---5-------5---5-----------|
A|-9-----------9-----------7---5---|-5---5-------5-------5-------5---|-9-----------9-----------7---5---|
E|---------------------------------|---------------------------------|---------------------------------|


E|---------------------------------|---------------------------------|---------------------------------|
B|---------------------------------|---------------------------------|---------------------------------|
G|-----------------9-------7-------|---------5-----------5-----------|-----------------9-------7-------|
D|---------7-----------------------|-----5---5-------5---5-----------|---------7-----------------------|
A|-5---5-------5-------5-------5---|-9-----------9-----------7---5---|-----5-------5-------5-------5---|
E|---------------------------------|---------------------------------|-8-------------------------------|


E|------------------------------|--------|--------|--------|--------|--------|--------|
B|------------------------------|--------|--------|--------|--------|--------|--------|
G|---------9-------7------------|--------|--------|--------|--------|--------|--------|
D|-7-----------------------7----|-7------|-7------|--------|--------|--------|--------|
A|-----5-------5-------5--------|--------|--------|--------|--------|--------|--------|
E|------------------------------|--------|--------|--------|--------|--------|--------|


E|--------|--------|--------|--------|--------|--------|--------|--------|--------|
B|--------|--------|--------|--------|--------|--------|--------|--------|--------|
G|--------|--------|--------|--------|--------|--------|--------|--------|--------|
D|--------|--------|--------|--------|--------|--------|--------|--------|--------|
A|--------|--------|--------|--------|--------|--------|--------|--------|--------|
E|--------|--------|--------|--------|--------|--------|--------|--------|--------|


E|--------|--------|--------|--------|-----------------|-----------------|-----------------|
B|--------|--------|--------|--------|-----------------|-----------------|-----------------|
G|--------|--------|--------|--------|-7---------------|-------5---5-----|-7---------------|
D|--------|--------|--------|--------|-7-----8---8-----|-3-----5---5-----|-7-----8---8-----|
A|--------|--------|--------|--------|-5-----8---8-----|-3-----3---3-----|-5-----8---8-----|
E|--------|--------|--------|--------|-------6---6-----|-1---------------|-------6---6-----|


E|-----------------|-----------------|-----------------|-----------------|-----------------|
B|-----------------|-----------------|-----------------|-----------------|-----------------|
G|-------5---5-----|-7---------------|-------5---5-----|-7---------------|-------5---5-----|
D|-3-----5---5-----|-7-----8---8-----|-3-----5---5-----|-7-----8---8-----|-3-----5---5-----|
A|-3-----3---3-----|-5-----8---8-----|-3-----3---3-----|-5-----8---8-----|-3-----3---3-----|
E|-1---------------|-------6---6-----|-1---------------|-------6---6-----|-1---------------|


E|--------|--------|--------|--------|--------|--------|--------|--------|--------|
B|--------|--------|--------|--------|--------|--------|--------|--------|--------|
G|--------|--------|-7------|--------|--------|--------|--------|--------|--------|
D|-8------|-8------|-7------|--------|--------|--------|--------|--------|--------|
A|-8------|-8------|-5------|--------|--------|--------|--------|--------|--------|
E|-6------|-6------|--------|--------|--------|--------|--------|--------|--------|


E|--------|--------|--------|--------|--------|--------|--------|--------|--------|
B|--------|--------|--------|--------|--------|--------|--------|--------|--------|
G|--------|--------|--------|--------|--------|--------|--------|--------|--------|
D|--------|--------|--------|--------|--------|--------|--------|--------|--------|
A|--------|--------|--------|--------|--------|--------|--------|--------|--------|
E|--------|--------|--------|--------|--------|--------|--------|--------|--------|


E|--------|-----------------|-----------------|-----------------|-----------------|
B|--------|-----------------|-----------------|-----------------|-----------------|
G|--------|-7---------------|-------5---5-----|-7---------------|-------5---5-----|
D|--------|-7-----8---8-----|-3-----5---5-----|-7-----8---8-----|-3-----5---5-----|
A|--------|-5-----8---8-----|-3-----3---3-----|-5-----8---8-----|-3-----3---3-----|
E|--------|-------6---6-----|-1---------------|-------6---6-----|-1---------------|


E|-----------------|-----------------|-----------------|-----------------|--------|
B|-----------------|-----------------|-----------------|-----------------|--------|
G|-7---------------|-------5---5-----|-7---------------|-------5---5-----|--------|
D|-7-----8---8-----|-3-----5---5-----|-7-----8---8-----|-3-----5---5-----|-8------|
A|-5-----8---8-----|-3-----3---3-----|-5-----8---8-----|-3-----3---3-----|-8------|
E|-------6---6-----|-1---------------|-------6---6-----|-1---------------|-6------|


E|--------|--------|--------|--------|--------|--------|--------|--------|------------------------------|
B|--------|--------|--------|--------|--------|--------|--------|--------|------------------------------|
G|--------|--------|-7------|--------|-7------|--------|-7------|--------|-7----7---7---7---7---7---7---|
D|-8------|-8------|-7------|-8------|-7------|-8------|-7------|-8------|-7----7---7---7---7---7---7---|
A|-8------|-8------|-5------|-8------|-5------|-8------|-5------|-8------|-5----5---5---5---5---5---5---|
E|-6------|-6------|--------|-6------|--------|-6------|--------|-6------|------------------------------|


E|--------|--------|--------|--------|--------|--------|--------|--------|--------|
B|--------|--------|--------|--------|--------|--------|--------|--------|--------|
G|--------|--------|--------|--------|--------|--------|--------|--------|--------|
D|--------|--------|--------|--------|--------|--------|--------|--------|--------|
A|--------|--------|--------|--------|--------|--------|--------|--------|--------|
E|--------|--------|--------|--------|--------|--------|--------|--------|--------|


E|--------|--------|--------|--------|-----------------|-----------------|-----------------|
B|--------|--------|--------|--------|-----------------|-----------------|-----------------|
G|--------|--------|--------|--------|-7---------------|-------5---5-----|-7---------------|
D|--------|--------|--------|--------|-7-----8---8-----|-3-----5---5-----|-7-----8---8-----|
A|--------|--------|--------|--------|-5-----8---8-----|-3-----3---3-----|-5-----8---8-----|
E|--------|--------|--------|--------|-------6---6-----|-1---------------|-------6---6-----|


E|-----------------|-----------------|-----------------|-----------------|-----------------|
B|-----------------|-----------------|-----------------|-----------------|-----------------|
G|-------5---5-----|-7---------------|-------5---5-----|-7---------------|-------5---5-----|
D|-3-----5---5-----|-7-----8---8-----|-3-----5---5-----|-7-----8---8-----|-3-----5---5-----|
A|-3-----3---3-----|-5-----8---8-----|-3-----3---3-----|-5-----8---8-----|-3-----3---3-----|
E|-1---------------|-------6---6-----|-1---------------|-------6---6-----|-1---------------|


E|---------------------------------|---------------------------------|-----------------|
B|---------------------------------|---------------------10--10--10--|-----------------|
G|---------------------------------|-------------10--10--10--10--10--|-7---------------|
D|---------------------12--12--12--|-10--10--10--10--10--10--10--10--|-7-----8---8-----|
A|-10--10--10--10--10--10--10--10--|-8---8---8---8---8---8---8---8---|-5-----8---8-----|
E|---------------------------------|---------------------------------|-------6---6-----|


E|-----------------|-----------------|-----------------|-----------------|-----------------|
B|-----------------|-----------------|-----------------|-----------------|-----------------|
G|-------5---5-----|-7---------------|-------5---5-----|-7---------------|-------5---5-----|
D|-3-----5---5-----|-7-----8---8-----|-3-----5---5-----|-7-----8---8-----|-3-----5---5-----|
A|-3-----3---3-----|-5-----8---8-----|-3-----3---3-----|-5-----8---8-----|-3-----3---3-----|
E|-1---------------|-------6---6-----|-1---------------|-------6---6-----|-1---------------|


E|-----------------|---------------------------|-----------------|-----------------|
B|-----------------|---------------------------|-----------------|-----------------|
G|-7---------------|-------5---5---5---5---5---|-7---------------|-------5---5-----|
D|-7-----8---8-----|-3-----5---5---5---5---5---|-7-----8---8-----|-3-----5---5-----|
A|-5-----8---8-----|-3-----3---3---3---3---3---|-5-----8---8-----|-3-----3---3-----|
E|-------6---6-----|-1-------------------------|-------6---6-----|-1---------------|


E|-----------------|-----------------|-----------------|-----------------|-----------------|
B|-----------------|-----------------|-----------------|-----------------|-----------------|
G|-7---------------|-------5---5-----|-7---------------|-------5---5-----|-7---------------|
D|-7-----8---8-----|-3-----5---5-----|-7-----8---8-----|-3-----5---5-----|-7-----8---8-----|
A|-5-----8---8-----|-3-----3---3-----|-5-----8---8-----|-3-----3---3-----|-5-----8---8-----|
E|-------6---6-----|-1---------------|-------6---6-----|-1---------------|-------6---6-----|


E|---------------------------|-----------------|-----------------|-----------------|
B|---------------------------|-----------------|-----------------|-----------------|
G|-------5---5---5---5---5---|-7---------------|-------5---5-----|-7---------------|
D|-3-----5---5---5---5---5---|-7-----8---8-----|-3-----5---5-----|-7-----8---8-----|
A|-3-----3---3---3---3---3---|-5-----8---8-----|-3-----3---3-----|-5-----8---8-----|
E|-1-------------------------|-------6---6-----|-1---------------|-------6---6-----|


E|-----------------|-----------------|-----------------|-----------------|---------------------------|
B|-----------------|-----------------|-----------------|-----------------|---------------------------|
G|-------5---5-----|-7---------------|-------5---5-----|-7---------------|-------5---5---5---5---5---|
D|-3-----5---5-----|-7-----8---8-----|-3-----5---5-----|-7-----8---8-----|-3-----5---5---5---5---5---|
A|-3-----3---3-----|-5-----8---8-----|-3-----3---3-----|-5-----8---8-----|-3-----3---3---3---3---3---|
E|-1---------------|-------6---6-----|-1---------------|-------6---6-----|-1-------------------------|


E|-----------------|-----------------|-----------------|-----------------|-----------------|
B|-----------------|-----------------|-----------------|-----------------|-----------------|
G|-7---------------|-------5---5-----|-7---------------|-------5---5-----|-7---------------|
D|-7-----8---8-----|-3-----5---5-----|-7-----8---8-----|-3-----5---5-----|-7-----8---8-----|
A|-5-----8---8-----|-3-----3---3-----|-5-----8---8-----|-3-----3---3-----|-5-----8---8-----|
E|-------6---6-----|-1---------------|-------6---6-----|-1---------------|-------6---6-----|


E|-----------------|
B|-----------------|
G|-------5---------|
D|-3-----5---------|
A|-3-----3---------|
E|-1---------------|





Track 2: Distortion 1

E|--------|--------|--------|--------|--------------------|--------|--------------------|
B|--------|--------|--------|--------|-7---7--------------|--------|--------------------|
G|--------|--------|--------|--------|-7---7--------------|--------|-7---7--------------|
D|--------|--------|--------|--------|-7---7--------------|--------|-7---7--------------|
A|--------|--------|--------|--------|-5---5--------------|--------|-5---5--------------|
E|--------|--------|--------|--------|--------------------|--------|--------------------|


E|-------------|--------|--------|--------|--------|--------|--------|--------|--------|
B|-------------|--------|--------|--------|--------|--------|--------|--------|--------|
G|-------------|--------|-7------|--------|-7------|--------|-7------|--------|--------|
D|-------------|-8------|-7------|-8------|-7------|-8------|-7------|-8------|-8------|
A|--------15---|-8------|-5------|-8------|-5------|-8------|-5------|-8------|-8------|
E|-------------|-6------|--------|-6------|--------|-6------|--------|-6------|-6------|


E|--------|--------|--------|--------|--------|--------|---------------------------------|
B|--------|--------|--------|--------|--------|--------|---------------------------------|
G|-7------|-7------|--------|--------|--------|--------|---------------------------------|
D|-7------|-7------|--------|--------|--------|--------|---------12------12--10------12--|
A|-5------|-5------|--------|--------|--------|--------|-----10------10----------10------|
E|--------|--------|--------|--------|--------|--------|---------------------------------|


E|---------------------------------|---------------------------------|------------------------------|
B|---------------------------------|---------------------------------|------------------------------|
G|---------10------10--8-----------|---------5-------5---3-------5---|------------------------------|
D|-----8-------------------8-------|-----3-------------------3-------|------7-------7---7---7---7---|
A|-6-----------6---------------6---|-1-----------1-------------------|-5----5---5---5---5---5---5---|
E|---------------------------------|---------------------------------|------------------------------|


E|------------------------------|-----------------|---------------------------|-------4---4-----|
B|------------------------------|-----------------|---------------------------|-------4---4-----|
G|-7---7---7---7---7---7---7----|-12----8---8-----|-------10--10--10--10--10--|-5-----5---5-----|
D|-7---7---7---7---7---7---7----|-12----8---8-----|-8-----10--10--10--10--10--|-5-----6---6-----|
A|-5---5---5---5---5---5---5----|-10----6---6-----|-8-----8---8---8---8---8---|-3-----6---6-----|
E|------------------------------|-----------------|-6-------------------------|-------4---4-----|


E|-----------------|-----------------|-----------------|-----------------|---------------------------|
B|-----------------|-----------------|-----------------|-----------------|---------------------------|
G|-8---------------|-----------------|-5---------------|-7---------------|-------5---5---5---5---5---|
D|-8---------8-----|-7-----3---3-----|-5-----5---5-----|-7-----8---8-----|-3-----5---5---5---5---5---|
A|-6-----8---8-----|-7-----3---3-----|-3-----5---5-----|-5-----8---8-----|-3-----3---3---3---3---3---|
E|-------6---6-----|-5-----1---1-----|-------3---3-----|-------6---6-----|-1-------------------------|


E|---------------------------------|---------------------------------|------------------------------|
B|---------------------------------|---------------------------------|------------------------------|
G|-----------------9-------7-------|---------------------------------|--------------9-------7-------|
D|---------7-----------------------|-----5-----------5-------5-------|------7-----------------------|
A|-5---5-------5-------5-------5---|-8-------8---7-------8-------7---|-5--------5-------5-------5---|
E|---------------------------------|---------------------------------|------------------------------|


E|---------------------------------|---------------------------------|---------------------------------|
B|---------------------------------|---------------------------------|---------------------------------|
G|---------------------------------|-----------------9-------7-------|---------------------------------|
D|-----5-----------5-------5-------|---------7-----------------------|-----5-----------5-------5-------|
A|-8-------8---7-------8-------7---|-5---5-------5-------5-------5---|-8-------8---7-------8-------7---|
E|---------------------------------|---------------------------------|---------------------------------|


E|------------------------------|---------------------------------|---------------------------------|
B|------------------------------|---------------------------------|---------------------------------|
G|--------------9-------7-------|---------------------------------|-----------------9-------7-------|
D|------7-----------------------|-----5-----------5-------5-------|---------7-----------------------|
A|-5--------5-------5-------5---|-8-------8---7-------8-------7---|-----5-------5-------5-------5---|
E|------------------------------|---------------------------------|---------------------------------|


E|---------------------------------|---------------------------------|---------------------------------|
B|---------------------------------|---------------------------------|---------------------------------|
G|---------9-------7-----------7---|---------------------------------|---------------------------------|
D|-7-----------------------7-------|---------------------------------|---------------------------------|
A|-----5-------5-------5-----------|-5---5---5---5---5---5---5---5---|-1---1---1---1---1---1---1---1---|
E|---------------------------------|---------------------------------|---------------------------------|


E|---------------------------------|---------------------------------|---------------------------------|
B|---------------------------------|---------------------------------|---------------------------------|
G|---------------------------------|---------------------------------|---------12--12--12--12----------|
D|---------------------------------|---------------------------------|-----12--12----------12--12--12--|
A|---------------------------------|-3---3---3---3---3---3---3---3---|-10--10------10--10------10--10--|
E|-1---1---1---1---1---1---1---1---|---------------------------------|---------------------------------|


E|---------------------------------|---------------------------------|---------------------------------|
B|---------------------6-----------|---------------------1-----------|---------------------------------|
G|---------8---8---10--8---8-------|---------3---3---5---3---3-------|-------------------------7---7---|
D|-12--8---8---8---8-------8---8---|-1---3---3---3---3-------3---3---|-----7---7---7---7---7---7---7---|
A|-6---6-----------------------6---|-1---1-----------------------3---|-5---5---5---5---5---5---5---5---|
E|---------------------------------|---------------------------------|---------------------------------|


E|------------------------------|-----------------|---------------------------|-----------------|
B|------------------------------|-----------------|---------------------------|-----------------|
G|-7---7---7---7---7---7---7----|-12----8---8-----|---------------------------|-5---------------|
D|-7---7---7---7---7---7---7----|-12--------------|-8-----3---3---3---3---3---|-5-----6---6-----|
A|-5---5---5---5---5---5---5----|-10----6---6-----|-8-----3---3---3---3---3---|-3-----6---6-----|
E|------------------------------|-----------------|-6-----1---1---1---1---1---|-------4---4-----|


E|-----------------|-----------------|-----------------|-----------------|---------------------------|
B|-----------------|-----------------|-----------------|-----------------|---------------------------|
G|-8---------------|-----------------|-5---------------|-7---------------|-------5---5---5---5---5---|
D|-8---------8-----|-7-----3---3-----|-5-----5---5-----|-7-----8---8-----|-3-----5---5---5---5---5---|
A|-6-----8---8-----|-7-----3---3-----|-3-----5---5-----|-5-----8---8-----|-3-----3---3---3---3---3---|
E|-------6---6-----|-5-----1---1-----|-------3---3-----|-------6---6-----|-1-------------------------|


E|---------------------------------|---------------------------------|------------------------------|
B|---------------------------------|---------------------------------|------------------------------|
G|-----------------9-------7-------|---------------------------------|--------------9-------7-------|
D|---------7-----------------------|-----5-----------5-------5-------|------7-----------------------|
A|-5---5-------5-------5-------5---|-8-------8---7-------8-------7---|-5--------5-------5-------5---|
E|---------------------------------|---------------------------------|------------------------------|


E|---------------------------------|---------------------------------|---------------------------------|
B|---------------------------------|---------------------------------|---------------------------------|
G|---------------------------------|-----------------9-------7-------|---------------------------------|
D|-----5-----------5-------5-------|---------7-----------------------|-----5-----------5-------5-------|
A|-8-------8---7-------8-------7---|-5---5-------5-------5-------5---|-8-------8---7-------8-------7---|
E|---------------------------------|---------------------------------|---------------------------------|


E|------------------------------|---------------------------------|--------|--------|
B|------------------------------|---------------------------------|--------|--------|
G|--------------9-------7-------|---------------------------------|--------|--------|
D|------7-----------------------|-----5-----------5-------5-------|--------|--------|
A|-5--------5-------5-------5---|-8-------8---7-------8-------7---|-5------|-5------|
E|------------------------------|---------------------------------|--------|--------|


E|---------------------------------|---------------------------------|---------------------------------|
B|---------------------------------|---------------------------------|---------------------------------|
G|-----------------9-------7-------|---------5-----------5-----------|-----------------9-------7-------|
D|---------7-----------------------|-----5---5-------5---5-----------|---------7-----------------------|
A|-----5-------5-------5-------5---|-9-----------9-----------7---5---|-5---5-------5-------5-------5---|
E|---------------------------------|---------------------------------|---------------------------------|


E|---------------------------------|---------------------------------|---------------------------------|
B|---------------------------------|---------------------------------|---------------------------------|
G|---------5-----------5-----------|-----------------9-------7-------|---------5-----------5-----------|
D|-----5---5-------5---5-----------|---------7-----------------------|-----5---5-------5---5-----------|
A|-9-----------9-----------7---5---|-5---5-------5-------5-------5---|-9-----------9-----------7---5---|
E|---------------------------------|---------------------------------|---------------------------------|


E|---------------------------------|---------------------------------|--------|--------|
B|---------------------------------|---------------------------------|--------|--------|
G|-----------------9-------7-------|---------5-----------5-----------|-12-----|-8------|
D|---------7-----------------------|-----5---5-------5---5-----------|-12-----|-8------|
A|-5---5-------5-------5-------5---|-9-----------9-----------7---5---|-10-----|-6------|
E|---------------------------------|---------------------------------|--------|--------|


E|--------|---------------------------------|---------------------------------|--------|
B|--------|---------------------------------|---------------------------------|--------|
G|--------|---------------------------------|-7---7---7---7---7---7---7---7---|--------|
D|-8------|-------------7---7---7---7---7---|-7---7---7---7---7---7---7---7---|--------|
A|-8------|-5---5---5---5---5---5---5---5---|-5---5---5---5---5---5---5---5---|--------|
E|-6------|---------------------------------|---------------------------------|--------|


E|--------|--------|--------|--------|--------|--------|--------|---------------------------------|
B|--------|--------|--------|--------|--------|--------|--------|---------------------------------|
G|--------|--------|--------|--------|--------|--------|--------|-----------------9-------7-------|
D|--------|--------|--------|--------|--------|--------|--------|---------7-----------------------|
A|--------|--------|--------|--------|--------|--------|--------|-5---5-------5-------5-------5---|
E|--------|--------|--------|--------|--------|--------|--------|---------------------------------|


E|---------------------------------|------------------------------|---------------------------------|
B|---------------------------------|------------------------------|---------------------------------|
G|---------------------------------|--------------9-------7-------|---------------------------------|
D|-----5-----------5-------5-------|------7-----------------------|-----5-----------5-------5-------|
A|-8-------8---7-------8-------7---|-5--------5-------5-------5---|-8-------8---7-------8-------7---|
E|---------------------------------|------------------------------|---------------------------------|


E|---------------------------------|---------------------------------|------------------------------|
B|---------------------------------|---------------------------------|------------------------------|
G|-----------------9-------7-------|---------------------------------|--------------9-------7-------|
D|---------7-----------------------|-----5-----------5-------5-------|------7-----------------------|
A|-5---5-------5-------5-------5---|-8-------8---7-------8-------7---|-5--------5-------5-------5---|
E|---------------------------------|---------------------------------|------------------------------|


E|---------------------------------|---------------------------------|---------------------------------|
B|---------------------------------|---------------------------------|---------------------10--10--10--|
G|---------------------------------|---------------------------------|-------------10--10--10--10--10--|
D|-----5-----------5-------5-------|---------------------12--12--12--|-10--10--10--10--10--10--10--10--|
A|-8-------8---7-------8-------7---|-10--10--10--10--10--10--10--10--|-8---8---8---8---8---8---8---8---|
E|---------------------------------|---------------------------------|---------------------------------|


E|---------------------------------|---------------------------------|------------------------------|
B|---------------------------------|---------------------------------|------------------------------|
G|-----------------9-------7-------|---------------------------------|--------------9-------7-------|
D|---------7-----------------------|-----5-----------5-------5-------|------7-----------------------|
A|-5---5-------5-------5-------5---|-8-------8---7-------8-------7---|-5--------5-------5-------5---|
E|---------------------------------|---------------------------------|------------------------------|


E|---------------------------------|---------------------------------|---------------------------------|
B|---------------------------------|---------------------------------|---------------------------------|
G|---------------------------------|-----------------9-------7-------|---------------------------------|
D|-----5-----------5-------5-------|---------7-----------------------|-----5-----------5-------5-------|
A|-8-------8---7-------8-------7---|-5---5-------5-------5-------5---|-8-------8---7-------8-------7---|
E|---------------------------------|---------------------------------|---------------------------------|


E|------------------------------|---------------------------------|---------------------------------|
B|------------------------------|---------------------------------|---------------------------------|
G|--------------9-------7-------|---------------------------------|-----------------9-------7-------|
D|------7-----------------------|-----5-----------5-------5-------|---------7-----------------------|
A|-5--------5-------5-------5---|-8-------8---7-------8-------7---|-5---5-------5-------5-------5---|
E|------------------------------|---------------------------------|---------------------------------|


E|---------------------------------|------------------------------|---------------------------------|
B|---------------------------------|------------------------------|---------------------------------|
G|---------------------------------|--------------9-------7-------|---------------------------------|
D|-----5-----------5-------5-------|------7-----------------------|-----5-----------5-------5-------|
A|-8-------8---7-------8-------7---|-5--------5-------5-------5---|-8-------8---7-------8-------7---|
E|---------------------------------|------------------------------|---------------------------------|


E|---------------------------------|---------------------------------|------------------------------|
B|---------------------------------|---------------------------------|------------------------------|
G|-----------------9-------7-------|---------------------------------|--------------9-------7-------|
D|---------7-----------------------|-----5-----------5-------5-------|------7-----------------------|
A|-5---5-------5-------5-------5---|-8-------8---7-------8-------7---|-5--------5-------5-------5---|
E|---------------------------------|---------------------------------|------------------------------|


E|---------------------------------|---------------------------------|---------------------------------|
B|---------------------------------|---------------------------------|---------------------------------|
G|---------------------------------|-----------------9-------7-------|---------------------------------|
D|-----5-----------5-------5-------|---------7-----------------------|-----5-----------5-------5-------|
A|-8-------8---7-------8-------7---|-5---5-------5-------5-------5---|-8-------8---7-------8-------7---|
E|---------------------------------|---------------------------------|---------------------------------|


E|------------------------------|---------------------------------|---------------------------------|
B|------------------------------|---------------------------------|---------------------------------|
G|--------------9-------7-------|---------------------------------|-----------------9-------7-------|
D|------7-----------------------|-----5-----------5-------5-------|---------7-----------------------|
A|-5--------5-------5-------5---|-8-------8---7-------8-------7---|-5---5-------5-------5-------5---|
E|------------------------------|---------------------------------|---------------------------------|


E|---------------------------------|------------------------------|---------------------------------|
B|---------------------------------|------------------------------|---------------------------------|
G|---------------------------------|--------------9-------7-------|---------------------------------|
D|-----5-----------5-------5-------|------7-----------------------|-----5-----------5-------5-------|
A|-8-------8---7-------8-------7---|-5--------5-------5-------5---|-8-------8---7-------8-------7---|
E|---------------------------------|------------------------------|---------------------------------|


E|---------------------------------|---------------------------------|------------------------------|
B|---------------------------------|---------------------------------|------------------------------|
G|-----------------9-------7-------|---------------------------------|--------------9-------7-------|
D|---------7-----------------------|-----5-----------5-------5-------|------7-----------------------|
A|-5---5-------5-------5-------5---|-8-------8---7-------8-------7---|-5--------5-------5-------5---|
E|---------------------------------|---------------------------------|------------------------------|


E|---------------------------------|---------------------------------|-----------------------|
B|---------------------------------|---------------------------------|-----------------------|
G|---------------------------------|-----------------9-------7-------|-----------------------|
D|-----5-----------5-------5-------|---------7-----------------------|-----5-----------------|
A|-8-------8---7-------8-------7---|-5---5-------5-------5-------5---|-8-------8---7---------|
E|---------------------------------|---------------------------------|-----------------------|





Track 3: Lead Guitar

E|--------|--------|--------|--------|--------|--------|--------|--------|--------|
B|--------|--------|--------|--------|--------|--------|--------|--------|--------|
G|--------|--------|--------|--------|--------|--------|--------|--------|--------|
D|--------|--------|--------|--------|--------|--------|--------|--------|--------|
A|--------|--------|--------|--------|--------|--------|--------|--------|--------|
E|--------|--------|--------|--------|--------|--------|--------|--------|--------|


E|--------|--------|--------|--------|--------|--------|--------|--------|--------|
B|--------|--------|--------|--------|--------|--------|--------|--------|--------|
G|--------|--------|--------|--------|--------|--------|--------|--------|--------|
D|--------|--------|--------|--------|--------|--------|--------|--------|--------|
A|--------|--------|--------|--------|--------|--------|--------|--------|--------|
E|--------|--------|--------|--------|--------|--------|--------|--------|--------|


E|--------|--------|--------|--------|--------|--------|--------|--------|--------|
B|--------|--------|--------|--------|--------|--------|--------|--------|--------|
G|--------|--------|--------|--------|--------|--------|--------|--------|--------|
D|--------|--------|--------|--------|--------|--------|--------|--------|--------|
A|--------|--------|--------|--------|--------|--------|--------|--------|--------|
E|--------|--------|--------|--------|--------|--------|--------|--------|--------|


E|--------|--------|--------|--------|--------|--------|--------|--------|--------|
B|--------|--------|--------|--------|--------|--------|--------|--------|--------|
G|--------|--------|--------|--------|--------|--------|--------|--------|--------|
D|--------|--------|--------|--------|--------|--------|--------|--------|--------|
A|--------|--------|--------|--------|--------|--------|--------|--------|--------|
E|--------|--------|--------|--------|--------|--------|--------|--------|--------|


E|--------|--------|--------|--------|--------|--------|--------|--------|--------|
B|--------|--------|--------|--------|--------|--------|--------|--------|--------|
G|--------|--------|--------|--------|--------|--------|--------|--------|--------|
D|--------|--------|--------|--------|--------|--------|--------|--------|--------|
A|--------|--------|--------|--------|--------|--------|--------|--------|--------|
E|--------|--------|--------|--------|--------|--------|--------|--------|--------|


E|--------|--------|--------|--------|--------|--------|--------|--------|--------|
B|--------|--------|--------|--------|--------|--------|--------|--------|--------|
G|--------|--------|--------|--------|--------|--------|--------|--------|--------|
D|--------|--------|--------|--------|--------|--------|--------|--------|--------|
A|--------|--------|--------|--------|--------|--------|--------|--------|--------|
E|--------|--------|--------|--------|--------|--------|--------|--------|--------|


E|--------|--------|--------|--------|--------|--------|--------|--------|--------|
B|--------|--------|--------|--------|--------|--------|--------|--------|--------|
G|--------|--------|--------|--------|--------|--------|--------|--------|--------|
D|--------|--------|--------|--------|--------|--------|--------|--------|--------|
A|--------|--------|--------|--------|--------|--------|--------|--------|--------|
E|--------|--------|--------|--------|--------|--------|--------|--------|--------|


E|--------|--------|--------|--------|--------|--------|--------|--------|--------|
B|--------|--------|--------|--------|--------|--------|--------|--------|--------|
G|--------|--------|--------|--------|--------|--------|--------|--------|--------|
D|--------|--------|--------|--------|--------|--------|--------|--------|--------|
A|--------|--------|--------|--------|--------|--------|--------|--------|--------|
E|--------|--------|--------|--------|--------|--------|--------|--------|--------|


E|--------|--------------------|------------------------------|---------------------------|
B|--------|--------------------|------------------------------|---------------------------|
G|--------|--------------------|------------------9---9---7---|----------5---5------------|
D|--------|--------------------|----------7---7---------------|------5--------------------|
A|--------|--------------------|------------------------------|-9----------------7---7----|
E|--------|-------3----5---7---|-7----7-----------------------|---------------------------|


E|---------------------|-------10------------------------|---------------------------|
B|----------------13---|-13-------13-10------10----------|------------------------17-|
G|---------------------|-----------------12------11------|------------------17-19----|
D|---------------------|-----------------------------12--|-10----10--10--------------|
A|-5-----5---5---------|---------------------------------|---------------------------|
E|---------------------|---------------------------------|---------------------------|


E|-------------------------17----17-20-20---|-20--20-------------|--------|--------|
B|-18----17-18-20----18-20----20------------|--------------------|--------|--------|
G|----19----------19------------------------|--------------------|--------|--------|
D|------------------------------------------|--------------------|--------|--------|
A|------------------------------------------|--------------------|--------|--------|
E|------------------------------------------|--------------------|--------|--------|


E|--------|--------|-----------------|---------------------------|-------4---4-----|
B|--------|--------|-----------------|---------------------------|-------4---4-----|
G|--------|--------|-12----8---8-----|-------10--10--10--10--10--|-5-----5---5-----|
D|--------|--------|-12----8---8-----|-8-----10--10--10--10--10--|-5-----6---6-----|
A|--------|--------|-10----6---6-----|-8-----8---8---8---8---8---|-3-----6---6-----|
E|--------|--------|-----------------|-6-------------------------|-------4---4-----|


E|-----------------|-----------------|-----------------|-----------------|---------------------------|
B|-----------------|-----------------|-----------------|-----------------|---------------------------|
G|-8---------------|-----------------|-5---------------|-7---------------|-------5---5---5---5---5---|
D|-8---------8-----|-7-----3---3-----|-5-----5---5-----|-7-----8---8-----|-3-----5---5---5---5---5---|
A|-6-----8---8-----|-7-----3---3-----|-3-----5---5-----|-5-----8---8-----|-3-----3---3---3---3---3---|
E|-------6---6-----|-5-----1---1-----|-------3---3-----|-------6---6-----|-1-------------------------|


E|--------|--------|--------|--------|-------------|---------------------------|--------|
B|--------|--------|--------|--------|-------11----|-10------------------------|--------|
G|--------|--------|--------|--------|-------------|-----12--10--12--12----12--|--------|
D|--------|--------|--------|--------|-------------|---------------------------|--------|
A|--------|--------|--------|--------|-------------|---------------------------|--------|
E|--------|--------|--------|--------|-------------|---------------------------|--------|


E|--------|--------|-------15----|-15-----15--15--|-15------------------------|-----------------------|
B|--------|--------|-------17----|-17-----17--17--|-17--------17--17--17--17--|-17--17--17--17--15----|
G|--------|--------|-------------|----------------|---------------------------|-----------------------|
D|--------|--------|-------------|----------------|---------------------------|-----------------------|
A|--------|--------|-------------|----------------|---------------------------|-----------------------|
E|--------|--------|-------------|----------------|---------------------------|-----------------------|


E|----------------|---------------------|---------20------------|-----------22--------------|
B|----------------|-20----20--20----20--|-20--20------20--20----|-20---20-------20--20--20--|
G|-17-----17------|---------------------|-----------------------|---------------------------|
D|----------------|---------------------|-----------------------|---------------------------|
A|----------------|---------------------|-----------------------|---------------------------|
E|----------------|---------------------|-----------------------|---------------------------|


E|-20------------------------------|----------------|-20----20--20----|-20----20--20----20--|
B|-----20--20--18--20--18--17--18--|----------------|-----------------|---------------------|
G|---------------------------------|-19-----17--17--|-----------------|---------------------|
D|---------------------------------|----------------|-----------------|---------------------|
A|---------------------------------|----------------|-----------------|---------------------|
E|---------------------------------|----------------|-----------------|---------------------|


E|-20--20--18--17------17----------|---------20----------------|-------------------------------------------|
B|-----------------20------18--17--|-17--17------17--17--------|-------------------18------18------18------|
G|---------------------------------|----------------------19---|-19-19-17--17--19------20------20------20--|
D|---------------------------------|---------------------------|-------------------------------------------|
A|---------------------------------|---------------------------|-------------------------------------------|
E|---------------------------------|---------------------------|-------------------------------------------|


E|-------------------------------|-----20------------22---22--22--|-22----22--22---22---|
B|-18--------------------18--20--|-20------20--20-20--------------|---------------------|
G|-----19--19--19---19-----------|--------------------------------|---------------------|
D|-------------------------------|--------------------------------|---------------------|
A|-------------------------------|--------------------------------|---------------------|
E|-------------------------------|--------------------------------|---------------------|


E|-22----22-22-20--18----------|-------------------------------------|-----------------------------------------------|
B|---------------------22--20--|-22-18-20-18-------------------------|-----18----18----18----18----18----18----18----|
G|-----------------------------|-------------21-19-21-19-19----17-19-|-17-----20----20----20----20----20----20----19-|
D|-----------------------------|-------------------------------------|-----------------------------------------------|
A|-----------------------------|-------------------------------------|-----------------------------------------------|
E|-----------------------------|-------------------------------------|-----------------------------------------------|


E|----------------------------|-------------------------------------------------|-------------------------------------------|
B|-------------18-18----------|-------------------------------------------------|-------------------------------------------|
G|-19----17-19-------19--19---|-19--17--------------17--------------17--14--17--|-14--------17-14-17--14--------17-14-17-14-|
D|----------------------------|---------19--18--17------19-18-15-17-------------|----18-17---------------18-17--------------|
A|----------------------------|-------------------------------------------------|-------------------------------------------|
E|----------------------------|-------------------------------------------------|-------------------------------------------|


E|-----------------------------------------------|---------18--------------------------|
B|-----------------------------18-20-20-20-20-18-|-20--20------20--20-20-20-20-18--20--|
G|-------14-17-17-14-14-14-19--------------------|-------------------------------------|
D|-18-17-----------------------------------------|-------------------------------------|
A|-----------------------------------------------|-------------------------------------|
E|-----------------------------------------------|-------------------------------------|


E|---------20----------------20------|-20---20--20--20---20------|-20---20--20--20---20---|
B|-17--17------17-17-17--17------17--|---------------------------|------------------------|
G|-----------------------------------|---------------------------|------------------------|
D|-----------------------------------|---------------------------|------------------------|
A|-----------------------------------|---------------------------|------------------------|
E|-----------------------------------|---------------------------|------------------------|


E|-20--20--20---20---20--20--|-20--20--18--17--------|
B|---------------------------|-----------------------|
G|---------------------------|-----------------------|
D|---------------------------|-----------------------|
A|---------------------------|-----------------------|
E|---------------------------|-----------------------|





Track 4: Untitled

G|--------|--------|--------|--------|--------------------|--------|--------------------|
D|--------|--------|--------|--------|--------------------|--------|--------------------|
A|-5------|-5------|-5------|-5------|-5---5--------------|--------|-5---5--------------|
E|--------|--------|--------|--------|--------------------|--------|--------------------|
B|--------|--------|--------|--------|--------------------|--------|--------------------|


G|--------|--------|--------|--------|--------|--------|--------|--------|--------|
D|--------|--------|--------|--------|--------|--------|--------|--------|--------|
A|--------|--------|-5------|--------|-5------|--------|-5------|--------|--------|
E|--------|-6------|--------|-6------|--------|-6------|--------|-6------|-6------|
B|--------|--------|--------|--------|--------|--------|--------|--------|--------|


G|--------|--------|--------|--------|--------|--------|--------|--------|--------|
D|--------|--------|--------|--------|--------|--------|--------|--------|--------|
A|-5------|-5------|-5------|-1------|--------|--------|--------|--------|--------|
E|--------|--------|--------|--------|-1------|--------|-3------|--------|-6------|
B|--------|--------|--------|--------|--------|-1------|--------|-4------|--------|


G|------------------------------|------------------------------|-----------------|
D|------------------------------|------------------------------|-----------------|
A|-5----5---5---5---5---5---5---|-5---5---5---5---5---5---5----|-10--------------|
E|------------------------------|------------------------------|-------11--11----|
B|------------------------------|------------------------------|-----------------|


G|---------------------------|-----------------|---------------------|-----------------|
D|---------------------------|-----------------|---------------------|-----------------|
A|-------8---8---8---8---8---|-3---------------|-6-------------------|-----------------|
E|-6-------------------------|-------4---4-----|-------6---6----6----|-5-----1---1-----|
B|---------------------------|-----------------|---------------------|-----------------|


G|-----------------|-----------------|---------------------------|------------------------------|
D|-----------------|-----------------|-3-------------------------|------------------------------|
A|-3---------------|-5---------------|-------3---3---3---3---3---|-5---7---8--------------------|
E|-------3---3-----|-------6---6-----|---------------------------|-------------6---6---6---6----|
B|-----------------|-----------------|---------------------------|------------------------------|


G|---------------------------|------------------------------|------------------------------|
D|---------------------------|------------------------------|-3---2---0--------------------|
A|----------3---3---3---3----|-5---5---5--------------------|-------------3---3---0---3----|
E|-1----1--------------------|-------------6---6---6---6----|------------------------------|
B|---------------------------|------------------------------|------------------------------|


G|------------------------------|---------------------------|------------------------------|
D|------------------------------|---------------------------|------------------------------|
A|-5---7---8--------------------|----------3---3---3---3----|-5---5---5--------------------|
E|-------------6---6---6---6----|-1----1--------------------|-------------6---6---6---6----|
B|------------------------------|---------------------------|------------------------------|


G|------------------------------|--------|--------|--------|--------|--------|--------|
D|-3---2---0--------------------|--------|--------|--------|--------|--------|--------|
A|-------------3---3---0---3----|-1------|-1------|-5------|-1------|--------|--------|
E|------------------------------|--------|--------|--------|--------|-1------|--------|
B|------------------------------|--------|--------|--------|--------|--------|-1------|


G|--------|--------|--------|---------------------------------|------------------------------|
D|--------|--------|--------|---------------------------------|------------------------------|
A|--------|--------|--------|-5---5---5---5---5---5---5---5---|-5---5---5---5---5---5---5----|
E|-3------|--------|-6------|---------------------------------|------------------------------|
B|--------|-4------|--------|---------------------------------|------------------------------|


G|-----------------|---------------------------|-----------------|---------------------|
D|-----------------|---------------------------|-----------------|---------------------|
A|-10--------------|-------8---8---8---8---8---|-3---------------|-6-------------------|
E|-------11--11----|-6-------------------------|-------4---4-----|-------6---6----6----|
B|-----------------|---------------------------|-----------------|---------------------|


G|-----------------|-----------------|-----------------|---------------------------|
D|-----------------|-----------------|-----------------|-3-------------------------|
A|-----------------|-3---------------|-5---------------|-------3---3---3---3---3---|
E|-5-----1---1-----|-------3---3-----|-------6---6-----|---------------------------|
B|-----------------|-----------------|-----------------|---------------------------|


G|------------------------------|---------------------------|------------------------------|
D|------------------------------|---------------------------|------------------------------|
A|-5---7---8--------------------|----------3---3---3---3----|-5---5---5--------------------|
E|-------------6---6---6---6----|-1----1--------------------|-------------6---6---6---6----|
B|------------------------------|---------------------------|------------------------------|


G|------------------------------|------------------------------|---------------------------|
D|-3---2---0--------------------|------------------------------|---------------------------|
A|-------------3---3---0---3----|-5---7---8--------------------|----------3---3---3---3----|
E|------------------------------|-------------6---6---6---6----|-1----1--------------------|
B|------------------------------|------------------------------|---------------------------|


G|------------------------------|------------------------------|--------|--------|
D|------------------------------|-3---2---0--------------------|--------|--------|
A|-5---5---5--------------------|-------------3---3---0---3----|-1------|-1------|
E|-------------6---6---6---6----|------------------------------|--------|--------|
B|------------------------------|------------------------------|--------|--------|


G|--------|--------|--------|--------|--------|--------|--------|------------------------------|
D|--------|--------|--------|--------|--------|--------|--------|------------------------------|
A|--------|-5------|--------|-5------|--------|-5------|--------|-5----5---5---5---5---5---5---|
E|-6------|--------|-6------|--------|-6------|--------|-6------|------------------------------|
B|--------|--------|--------|--------|--------|--------|--------|------------------------------|


G|---------------------------|---------------------------|---------------------------|
D|---------------------------|---------------------------|---------------------------|
A|-10---10--10--10--10-------|---------------------------|---------------------------|
E|----------------------13---|-11---11--11--11--11--11---|-6----6---6---6---6---6----|
B|---------------------------|---------------------------|---------------------------|


G|------------------------------|---------------------------------|-----------------|
D|------------------------------|---------------------------------|-----------------|
A|-5----5---5---5---5---5---5---|-5---5---5---5---5---5---5---5---|-10--------------|
E|------------------------------|---------------------------------|-------11--11----|
B|------------------------------|---------------------------------|-----------------|


G|---------------------------|-----------------|---------------------|-----------------|
D|---------------------------|-----------------|---------------------|-----------------|
A|-------8---8---8---8---8---|-3---------------|-6-------------------|-----------------|
E|-6-------------------------|-------4---4-----|-------6---6----6----|-5-----1---1-----|
B|---------------------------|-----------------|---------------------|-----------------|


G|-----------------|-----------------|---------------------------|------------------------------|
D|-----------------|-----------------|-3-------------------------|------------------------------|
A|-3---------------|-5---------------|-------3---3---3---3---3---|-5---7---8--------------------|
E|-------3---3-----|-------6---6-----|---------------------------|-------------6---6---6---6----|
B|-----------------|-----------------|---------------------------|------------------------------|


G|---------------------------|------------------------------|------------------------------|
D|---------------------------|------------------------------|-3---2---0--------------------|
A|----------3---3---3---3----|-5---5---5--------------------|-------------3---3---0---3----|
E|-1----1--------------------|-------------6---6---6---6----|------------------------------|
B|---------------------------|------------------------------|------------------------------|


G|------------------------------|---------------------------|--------------------|
D|------------------------------|---------------------------|--------------------|
A|-5---7---8--------------------|----------3---3---3---3----|-5----5-------------|
E|-------------6---6---6---6----|-1----1--------------------|----------6---6-----|
B|------------------------------|---------------------------|--------------------|


G|------------------------------|---------------------------------|---------------------------------|
D|------------------------------|---------------------------------|---------------------------------|
A|----------3---3---3---3---3---|---------------------------------|---------------------------------|
E|-1----1-----------------------|-3---3---3---3---3---3---3---3---|-6---6---6---6---6---6---6---6---|
B|------------------------------|---------------------------------|---------------------------------|


G|------------------------------|---------------------------|------------------------------|
D|------------------------------|---------------------------|------------------------------|
A|-5---7---8--------------------|----------3---3---3---3----|-5---7---8--------------------|
E|-------------6---6---6---6----|-1----1--------------------|-------------6---6---6---6----|
B|------------------------------|---------------------------|------------------------------|


G|------------------------------|------------------------------|---------------------------|
D|-3---2---0--------------------|------------------------------|---------------------------|
A|-------------3---3---0---3----|-5---7---8--------------------|----------3---3---3---3----|
E|------------------------------|-------------6---6---6---6----|-1----1--------------------|
B|------------------------------|------------------------------|---------------------------|


G|------------------------------|------------------------------|------------------------------|
D|------------------------------|-3---2---0--------------------|------------------------------|
A|-5---7---8--------------------|-------------3---3---0---3----|-5---7---8--------------------|
E|-------------6---6---6---6----|------------------------------|-------------6---6---6---6----|
B|------------------------------|------------------------------|------------------------------|


G|---------------------------|------------------------------|------------------------------|
D|---------------------------|------------------------------|-3---2---0--------------------|
A|----------3---3---3---3----|-5---7---8--------------------|-------------3---3---0---3----|
E|-1----1--------------------|-------------6---6---6---6----|------------------------------|
B|---------------------------|------------------------------|------------------------------|


G|------------------------------|---------------------------|------------------------------|
D|------------------------------|---------------------------|------------------------------|
A|-5---7---8--------------------|----------3---3---3---3----|-5---7---8--------------------|
E|-------------6---6---6---6----|-1----1--------------------|-------------6---6---6---6----|
B|------------------------------|---------------------------|------------------------------|


G|------------------------------|------------------------------|---------------------------|
D|-3---2---0--------------------|------------------------------|---------------------------|
A|-------------3---3---0---3----|-5---7---8--------------------|----------3---3---3---3----|
E|------------------------------|-------------6---6---6---6----|-1----1--------------------|
B|------------------------------|------------------------------|---------------------------|


G|------------------------------|------------------------------|------------------------------|
D|------------------------------|-3---2---0--------------------|------------------------------|
A|-5---7---8--------------------|-------------3---3---0---3----|-5---7---8--------------------|
E|-------------6---6---6---6----|------------------------------|-------------6---6---6---6----|
B|------------------------------|------------------------------|------------------------------|


G|---------------------------|------------------------------|------------------------------|
D|---------------------------|------------------------------|-3---2---0--------------------|
A|----------3---3---3---3----|-5---7---8--------------------|-------------3---3---0---3----|
E|-1----1--------------------|-------------6---6---6---6----|------------------------------|
B|---------------------------|------------------------------|------------------------------|


G|------------------------------|---------------------------|------------------------------|
D|------------------------------|---------------------------|------------------------------|
A|-5---7---8--------------------|----------3---3---3---3----|-5---7---8--------------------|
E|-------------6---6---6---6----|-1----1--------------------|-------------6---6---6---6----|
B|------------------------------|---------------------------|------------------------------|


G|------------------------------|------------------------------|--------------------|
D|-3---2---0--------------------|------------------------------|--------------------|
A|-------------3---3---0---3----|-5---7---8--------------------|----------3---------|
E|------------------------------|-------------6---6---6---6----|-1----1-------------|
B|------------------------------|------------------------------|--------------------|