Menu:

 

Search:

 

alexander borodin - polovtsian dances prince igor:

 



Title: Polovtsian Dances (Prince Igor)
Artist: 
Album: 
Author: Alexander Borodin


Track 1: Electric Guitar (jazz)

E|-----------12--------|-12---10--12-------7---5---|-7---8---10---------|-10---12---7----5---3---|
B|-10---10-------------|--------------13---7-------|--------------------|------------------------|
G|------9---------9----|------11-----------5-------|---------12----12---|------12--------4-------|
D|------10--------10---|------10-------------------|---------9-----9----|------9-----------------|
G|-0----0---------0----|-0----0------------0-------|-0-------0-----0----|-0----0---------0-------|
E|---------------------|---------------------------|--------------------|------------------------|


E|-0----0----5---------|-5----7----5----3---2---|-3---2---0----------|-0----2----3----5----|
B|------1---------1----|------7-----------------|---------0-----0----|------0---------0----|
G|------2---------2----|------5---------5-------|---------0-----0----|------0---------0----|
D|---------------------|------------------------|--------------------|---------------------|
G|-0----0---------0----|-0----0---------0-------|-0-------0-----0----|-0----0---------0----|
E|---------------------|------------------------|--------------------|---------------------|


E|-----------12--------|-12---10--12-------7---5---|-7---8---10---------|-10---12---7----5---3---|
B|-10---10-------------|--------------13---7-------|--------------------|------------------------|
G|------11--------11---|------11-----------5-------|---------12----12---|------12--------4-------|
D|------10--------10---|------10-------------------|---------9-----9----|------9-----------------|
G|-0----0---------0----|-0----0------------0-------|-0-------0-----0----|-0----0---------0-------|
E|---------------------|---------------------------|--------------------|------------------------|


E|-0----0----5---------|-5----7----5----3---2---|-3---2---0----------|-0----2----3----5----|
B|------1---------1----|------4---------4-------|---------0-----0----|------0---------0----|
G|------2---------2----|------5---------5-------|---------0-----0----|------0---------0----|
D|---------------------|------------------------|--------------------|---------------------|
G|-0----0---------0----|-0----0---------0-------|-0-------0-----0----|-0----0---------0----|
E|---------------------|------------------------|--------------------|---------------------|


E|-----------8---------|-8----10---8----7---5---|-7---8---10---------|-10------------------|
B|-10---10-------------|------10----------------|---------0-----0----|----------------0----|
G|---------------------|----------------5-------|---------0-----0----|------8----7----0----|
D|------10--------10---|------10----------------|--------------------|------5--------------|
G|-8----8---------8----|-8----8---------8-------|-7-------7-----7----|-7----7---------7----|
E|---------------------|------------------------|--------------------|---------------------|


E|---------------------|------------------------|--------------------|---------------------------|
B|-----------8---------|-8----10---8------------|--------------------|---------------------------|
G|-8----8---------8----|------8---------10--8---|-7---5---4----------|-4----4---5---7----5---4---|
D|------10--------10---|------10--------10------|---------5-----5----|------5------------5-------|
G|-7----7---------7----|-7----7---------7-------|-7-------7-----7----|-7----7------------7-------|
E|---------------------|------------------------|--------------------|---------------------------|


E|---------------------|------------------------|--------------------|---------------------|
B|---------------------|------3-----------------|---------0----------|-0----1----3---------|
G|-2----2----5---------|-5----0----5----4---2---|-0---2---0----------|----------------0----|
D|------2---------2----|----------------4-------|---------2-----2----|-0----0---------0----|
G|-5----5---------5----|-5----5---------5-------|--------------------|---------------------|
E|---------------------|------------------------|-0-------0-----0----|-0----0---------0----|


E|---------------------|---------------------------|-2----2-----2----|-2----2-----2----|
B|-----------5---------|-5----3---5----------------|-5----5-----5----|-4----4-----4----|
G|-2----2--------------|------0-------5----4---2---|-2----2-----2----|-2----2-----2----|
D|------2---------2----|-------------------4-------|-----------------|-----------------|
G|-5----5---------5----|-5----5------------5-------|-4----4-----4----|-4----4-----4----|
E|---------------------|---------------------------|-----------------|-----------------|


E|-----------12--------|-12---10--12--8----7---5---|-7---8---10---------|-10---12---7----5---3---|
B|-10---10--------10---|------8------------5-------|---------0-----0----|------0---------0-------|
G|------9---------9----|------9------------5-------|---------0-----0----|------0---------0-------|
D|------10-------------|-0----0------------0-------|-0-------0-----0----|-0----0---------0-------|
G|---------------------|---------------------------|--------------------|------------------------|
E|-10---10--------10---|---------------------------|--------------------|------------------------|


E|-0----0----5---------|-5----7----5----3---2---|-3---2---0----------|-0-------------------|
B|------1---------1----|------4---------4-------|---------0-----0----|----------------0----|
G|------0---------0----|------5---------5-------|---------0-----0----|-----------0---------|
D|-0----0---------0----|-0----0---------0-------|-0-------0-----0----|------4--------------|
G|---------------------|------------------------|--------------------|-7----7---------7----|
E|---------------------|------------------------|--------------------|---------------------|


E|-----------0---------|-0--------0----------------|--------------------|----------0----------------|
B|---------------------|------3--------------------|-0---1---3----------|-3----3-------3----1---0---|
G|------0---------0----|--------------5----4---2---|--------------------|---------------------------|
D|-7----7---------7----|------4------------4-------|---------4-----4----|------3------------3-------|
G|-6----6---------6----|-5----5------------5-------|-4-------4-----4----|-3----3------------3-------|
E|---------------------|---------------------------|--------------------|---------------------------|


E|-0----0----5---------|-5----5---7---5----3---2---|-3---2---0----------|-0----10--12--10---8---7---|
B|------1---------1----|------4------------4-------|---------0-----0----|------9------------9-------|
G|---------------------|------5------------5-------|---------0-----0----|------10-----------10------|
D|------2---------2----|-0----0------------0-------|-0-------0-----0----|-0----0------------0-------|
G|-2----2---------2----|---------------------------|--------------------|---------------------------|
E|---------------------|---------------------------|--------------------|---------------------------|


E|---------------------|------10----------------|-7---5---3----------|-----------------|
B|-10---10---13--------|-13--------13---12--10--|---------0-----0----|------0-----0----|
G|------12--------12---|------11--------11------|---------0-----0----|------0-----0----|
D|------14--------14---|------------------------|--------------------|-4----4-----4----|
G|---------------------|------------------------|-0-------0-----0----|-0----0-----0----|
E|-10---10--------10---|-10---10--------10------|--------------------|-----------------|


E|-----------12--------|-12---10--12-------7---5---|-7---5---3----------|-----------------|
B|-10---10-------------|--------------13---7-------|---------0-----0----|-0----0-----0----|
G|------9---------9----|------11-----------5-------|---------0-----0----|-----------------|
D|------10--------10---|------10-------------------|--------------------|-4----4-----4----|
G|-0----0---------0----|-0----0------------0-------|-0-------0-----0----|-0----0-----0----|
E|---------------------|---------------------------|--------------------|-----------------|


E|-----------0---------|-0--------0----------------|--------------------|-7---5---3----------|
B|---------------------|------3-------1----0-------|-0------------------|---------0-----0----|
G|-2----2--------------|-----------------------2---|-----2---0----------|---------0-----0----|
D|-2----2---------2----|------4------------4-------|--------------------|--------------------|
G|-0----0---------0----|-0----0------------0-------|-0-------0-----0----|-0-------0-----0----|
E|---------------------|---------------------------|--------------------|--------------------|


E|-12-----|
B|-12-----|
G|--------|
D|--------|
G|-0------|
E|--------|





Track 2: Untitled

G|--------|--------|--------|--------|--------|--------|--------|--------|--------|
D|--------|--------|--------|--------|--------|--------|--------|--------|--------|
A|--------|--------|--------|--------|--------|--------|--------|--------|--------|
E|--------|--------|--------|--------|--------|--------|--------|--------|--------|


G|--------|--------|--------|--------|--------|--------|--------|--------|--------|
D|--------|--------|--------|--------|--------|--------|--------|--------|--------|
A|--------|--------|--------|--------|--------|--------|--------|--------|--------|
E|--------|--------|--------|--------|--------|--------|--------|--------|--------|


G|--------|--------|--------|--------|--------|--------|--------|--------|--------|
D|--------|--------|--------|--------|--------|--------|--------|--------|--------|
A|--------|--------|--------|--------|--------|--------|--------|--------|--------|
E|--------|--------|--------|--------|--------|--------|--------|--------|--------|


G|--------|--------|--------|--------|--------|--------|--------|--------|--------|
D|--------|--------|--------|--------|--------|--------|--------|--------|--------|
A|--------|--------|--------|--------|--------|--------|--------|--------|--------|
E|--------|--------|--------|--------|--------|--------|--------|--------|--------|


G|--------|--------|--------|--------|--------|--------|--------|--------|--------|
D|--------|--------|--------|--------|--------|--------|--------|--------|--------|
A|--------|--------|--------|--------|--------|--------|--------|--------|--------|
E|--------|--------|--------|--------|--------|--------|--------|--------|--------|


G|--------|--------|--------|--------|--------|--------|--------|--------|--------|
D|--------|--------|--------|--------|--------|--------|--------|--------|--------|
A|--------|--------|--------|--------|--------|--------|--------|--------|--------|
E|--------|--------|--------|--------|--------|--------|--------|--------|--------|


G|--------|--------|--------|--------|--------|--------|--------|
D|--------|--------|--------|--------|--------|--------|--------|
A|--------|--------|--------|--------|--------|--------|--------|
E|--------|--------|--------|--------|--------|--------|--------|