Menu:

 

Search:

 

aggressive rejection - riff medley:

 



Title: Riff Medley
Artist: 
Album: 
Author: David Kelly


Track 1: Untitled

E|---------------------------|------------------------|---------------------------|
B|---------------------------|------------------------|---------------------------|
G|---------------------------|------------------------|---------------------------|
D|---------------------------|------------------------|---------------------------|
A|---------------------------|-------------------2----|---------------------------|
E|-0----2---0----0---2---2---|-0----2---0----0--------|-0----2---0----0---2---2---|


E|------------------------|---------------------------|------------------------|---------------------------|
B|------------------------|---------------------------|------------------------|---------------------------|
G|------------------------|---------------------------|------------------------|---------------------------|
D|------------------------|---------------------------|------------------------|---------------------------|
A|-------------------2----|---------------------------|-------------------2----|---------------------------|
E|-0----2---0----0--------|-0----2---0----0---2---2---|-0----2---0----0--------|-0----2---0----0---2---2---|


E|------------------------|---------------------------|------------------------|---------------------------|
B|------------------------|---------------------------|------------------------|---------------------------|
G|------------------------|---------------------------|------------------------|---------------------------|
D|------------------------|---------------------------|------------------------|---------------------------|
A|-------------------2----|---------------------------|-------------------2----|---------------------------|
E|-0----2---0----0--------|-0----2---0----0---2---2---|-0----2---0----0--------|-0----2---0----0---2---2---|


E|------------------------|---------------------------|------------------------|---------------------------|
B|------------------------|---------------------------|------------------------|---------------------------|
G|------------------------|---------------------------|------------------------|---------------------------|
D|------------------------|---------------------------|------------------------|---------------------------|
A|-------------------2----|---------------------------|-------------------2----|---------------------------|
E|-0----2---0----0--------|-0----2---0----0---2---2---|-0----2---0----0--------|-0----2---0----0---2---2---|


E|------------------------|---------------------------|------------------------|---------------------------|
B|------------------------|---------------5---3---5---|---------------5---5----|---------------5---3---5---|
G|------------------------|---------------------------|------------------------|---------------------------|
D|------------------------|-2----4---2----------------|-2----4---2-------------|-2----4---2----------------|
A|-------------------2----|-2----4---2----------------|-2----4---2-------------|-2----4---2----------------|
E|-0----2---0----0--------|-0----2---0----------------|-0----2---0-------------|-0----2---0----------------|


E|------------------------|-----------------------|--------------------|-----------------------|
B|---------------5---5----|-----------5---3---5---|-----------5---5----|-----------5---3---5---|
G|------------------------|-----------------------|--------------------|-----------------------|
D|-2----4---2-------------|-----------------------|--------------------|-----------------------|
A|-2----4---2-------------|-----------------------|--------------------|-----------------------|
E|-0----2---0-------------|-----------------------|--------------------|-----------------------|


E|--------------------|------------------------|------------------------|------------------------|
B|-----------5---5----|------------------------|------------------------|------------------------|
G|--------------------|------------------------|------------------------|------------------------|
D|--------------------|-4---5----9----4----4---|-4---5----4---5----4----|-4---5----9----4----4---|
A|--------------------|------------------------|------------------------|------------------------|
E|--------------------|------------------------|------------------------|------------------------|


E|------------------------|------------------------|------------------------|------------------------|
B|------------------------|------------------------|------------------------|------------------------|
G|------------------------|------------------------|------------------------|------------------------|
D|-4---5----4--------4----|-4---5----9----4----4---|-4---5----4---5----4----|-4---5----9----4----4---|
A|--------------5---------|------------------------|------------------------|------------------------|
E|------------------------|------------------------|------------------------|------------------------|


E|---------------------------|------------------------|---------------------------------|
B|---------------------------|------------------------|---------------------------------|
G|---------------------------|------------------------|---------------------------------|
D|-4---5----4---2---4----2---|-0---2----0-------------|---------------------------------|
A|---------------------------|--------------4----0----|-3---3---3-----------------------|
E|---------------------------|------------------------|-------------4---3---3---4---4---|


E|---------------------------------|---------------------------------|---------------------------------|
B|---------------------------------|---------------------------------|---------------------------------|
G|---------------------------------|---------------------------------|---------------------------------|
D|---------------------------------|---------------------------------|---------------------------------|
A|-3---3---3-----------------------|-3---3---3-----------------------|---------------------------------|
E|-------------4---3---3---4---4---|-------------4---3---3---4---4---|-1---1---1---3---4---3---4---3---|


E|--------|--------|--------|--------|----------------|----------------|----------------|
B|--------|--------|--------|--------|----------------|----------------|----------------|
G|--------|--------|--------|--------|-5---5----------|-5---5----------|-5---5----------|
D|--------|--------|--------|--------|-5---5----------|-5---5----------|-5---5----------|
A|--------|--------|--------|--------|-3---3----------|-3---3----------|-3---3----------|
E|--------|--------|--------|--------|----------------|----------------|----------------|


E|------------------------------|----------------|----------------|----------------|
B|------------------------------|----------------|----------------|----------------|
G|------------------------------|-5---5----------|-5---5----------|-5---5----------|
D|-3---3--------6---5---6---5---|-5---5----------|-5---5----------|-5---5----------|
A|-3---3--------6---5---6---5---|-3---3----------|-3---3----------|-3---3----------|
E|-1---1--------4---3---4---3---|----------------|----------------|----------------|


E|------------------------------|----------------|----------------|----------------|
B|------------------------------|----------------|----------------|----------------|
G|------------------------------|-5---5----------|-5---5----------|-5---5----------|
D|-3---3--------6---5---6---5---|-5---5----------|-5---5----------|-5---5----------|
A|-3---3--------6---5---6---5---|-3---3----------|-3---3----------|-3---3----------|
E|-1---1--------4---3---4---3---|----------------|----------------|----------------|


E|------------------------------|----------------|----------------|----------------|
B|------------------------------|----------------|----------------|----------------|
G|------------------------------|-5---5----------|-5---5----------|-5---5----------|
D|-3---3--------6---5---6---5---|-5---5----------|-5---5----------|-5---5----------|
A|-3---3--------6---5---6---5---|-3---3----------|-3---3----------|-3---3----------|
E|-1---1--------4---3---4---3---|----------------|----------------|----------------|


E|-------------------------------------------|---------------------------------|---------------------------------|
B|-------------------------------------------|---------------------------------|---------------------------------|
G|-------------------------------------------|---------------------------------|---------------------------------|
D|-3---3-------------------------------------|---------------------------------|---------------------------------|
A|-3---3---3--3--5--5--6--6--5--5--6--6------|-------------2-------------------|-0---0---0---0-------------------|
E|-1---1---------------------------------5---|-0---0---0-------4---4---2---4---|-----------------4---4---2---2---|


E|---------------------------------|---------------------------------|---------------------------------|
B|---------------------------------|---------------------------------|---------------------------------|
G|---------------------------------|---------------------------------|---------------------------------|
D|---------------------------------|---------------------------------|---------------------------------|
A|-------------2-------------------|-0---0---0---0-------------------|-------------2-------------------|
E|-0---0---0-------4---4---2---4---|-----------------4---4---2---2---|-0---0---0-------4---4---2---4---|


E|---------------------------------|---------------------------------|---------------------------------|
B|---------------------------------|---------------------------------|---------------------------------|
G|---------------------------------|---------------------------------|---------------------------------|
D|---------------------------------|---------------------------------|---------------------------------|
A|-0---0---0---0-------------------|-------------2-------------------|-0---0---0---0-------------------|
E|-----------------4---4---2---2---|-0---0---0-------4---4---2---4---|-----------------4---4---2---2---|


E|---------------------------------|---------------------------------|---------------------------------|
B|---------------------------------|---------------------------------|---------------------------------|
G|---------------------------------|---------------------------------|---------------------------------|
D|---------------------------------|---------------------------------|---------------------------------|
A|-------------2-------------------|-0---0---0---0-------------------|-------------2-------------------|
E|-0---0---0-------4---4---2---4---|-----------------4---4---2---2---|-0---0---0-------4---4---2---4---|


E|---------------------------------|---------------------------------|---------------------------------|
B|---------------------------------|---------------------------------|---------------------------------|
G|---------------------------------|---------------------------------|---------------------------------|
D|---------------------------------|---------------------------------|---------------------------------|
A|-0---0---0---0-------------------|-------------2-------------------|-0---0---0---0-------------------|
E|-----------------4---4---2---2---|-0---0---0-------4---4---2---4---|-----------------4---4---2---2---|


E|---------------------------------|---------------------------------|------------------------------|
B|---------------------------------|---------------------------------|-----------------13-----------|
G|---------------------------------|-----------------0---1---3---5---|-12--14--15--12-------15--14--|
D|---------------------------------|---------0---2-------------------|------------------------------|
A|-------------2-------------------|-0---2---------------------------|------------------------------|
E|-0---0---0-------4---4---2---4---|---------------------------------|------------------------------|


E|------------------------------|------------------------------|---------------------------|
B|-----------------13-----------|-----------------13-----------|---------------------------|
G|-12--14--15--12-------15--14--|-12--14--15--12-------15--14--|-15--14--10---12-----------|
D|------------------------------|------------------------------|-------------------15--14--|
A|------------------------------|------------------------------|---------------------------|
E|------------------------------|------------------------------|---------------------------|


E|------------------------------|------------------------------|------------------------------|
B|-----------------13-----------|-----------------13-----------|-----------------13-----------|
G|-12--14--15--12-------15--14--|-12--14--15--12-------15--14--|-12--14--15--12-------15--14--|
D|------------------------------|------------------------------|------------------------------|
A|------------------------------|------------------------------|------------------------------|
E|------------------------------|------------------------------|------------------------------|


E|---------------------------|------------------------------|------------------------------|
B|---------------------------|-----------------13-----------|-----------------13-----------|
G|-15--14--10---12-----------|-12--14--15--12-------15--14--|-12--14--15--12-------15--14--|
D|-------------------15--14--|------------------------------|------------------------------|
A|---------------------------|------------------------------|------------------------------|
E|---------------------------|------------------------------|------------------------------|


E|------------------------------|---------------------------|------------------------------|
B|-----------------13-----------|---------------------------|-----------------13-----------|
G|-12--14--15--12-------15--14--|-15--14--10---12-----------|-12--14--15--12-------15--14--|
D|------------------------------|-------------------15--14--|------------------------------|
A|------------------------------|---------------------------|------------------------------|
E|------------------------------|---------------------------|------------------------------|


E|------------------------------|------------------------------|---------------------------|
B|-----------------13-----------|-----------------13-----------|---------------------------|
G|-12--14--15--12-------15--14--|-12--14--15--12-------15--14--|-15--14--10---12-----------|
D|------------------------------|------------------------------|-------------------3---2---|
A|------------------------------|------------------------------|-------------------3---2---|
E|------------------------------|------------------------------|-------------------1---0---|


E|--------|--------|--------|--------|--------|--------|--------|--------|-------------------------------------------------|
B|--------|--------|--------|--------|--------|--------|--------|--------|-------------------------------------------------|
G|--------|--------|--------|--------|--------|--------|--------|--------|-0--0--0--0--0--0--0--0--5--5--5--3--3--3--2--2--|
D|--------|--------|--------|--------|--------|--------|--------|--------|-------------------------------------------------|
A|--------|--------|--------|--------|--------|--------|--------|--------|-------------------------------------------------|
E|--------|--------|--------|--------|--------|--------|--------|--------|-------------------------------------------------|


E|-------------------------------------------------|-------------------------------------------------|
B|-------------------------------------------------|-------------------------------------------------|
G|-0--0--0--0--0--0--0--0--5--5--5--3--3--3--2--2--|-0--0--0--0--0--0--0--0--5--5--5--3--3--3--2--2--|
D|-------------------------------------------------|-------------------------------------------------|
A|-------------------------------------------------|-------------------------------------------------|
E|-------------------------------------------------|-------------------------------------------------|


E|-------------------------------------------------|-------------------------------------------------|
B|-------------------------------------------------|-------------------------------------------------|
G|-3--3--3--3--3--3--3--3--7--7--7--5--5--5--7--7--|-0--0--0--0--0--0--0--0--5--5--5--3--3--3--2--2--|
D|-------------------------------------------------|-------------------------------------------------|
A|-------------------------------------------------|-------------------------------------------------|
E|-------------------------------------------------|-------------------------------------------------|


E|-------------------------------------------------|-------------------------------------------------|
B|-------------------------------------------------|-------------------------------------------------|
G|-0--0--0--0--0--0--0--0--5--5--5--3--3--3--2--2--|-0--0--0--0--0--0--0--0--5--5--5--3--3--3--2--2--|
D|-------------------------------------------------|-------------------------------------------------|
A|-------------------------------------------------|-------------------------------------------------|
E|-------------------------------------------------|-------------------------------------------------|


E|-------------------------------------------------|-------------------------------------------------|
B|-------------------------------------------------|-------------------------------------------------|
G|-3--3--3--3--3--3--3--3--7--7--7--5--5--5--7--7--|-0--0--0--0--0--0--0--0--5--5--5--3--3--3--2--2--|
D|-------------------------------------------------|-------------------------------------------------|
A|-------------------------------------------------|-------------------------------------------------|
E|-------------------------------------------------|-------------------------------------------------|


E|-------------------------------------------------|-------------------------------------------------|
B|-------------------------------------------------|-------------------------------------------------|
G|-0--0--0--0--0--0--0--0--5--5--5--3--3--3--2--2--|-0--0--0--0--0--0--0--0--5--5--5--3--3--3--2--2--|
D|-------------------------------------------------|-------------------------------------------------|
A|-------------------------------------------------|-------------------------------------------------|
E|-------------------------------------------------|-------------------------------------------------|


E|-------------------------------------------------|-------------------------------------------------|
B|-------------------------------------------------|-------------------------------------------------|
G|-3--3--3--3--3--3--3--3--7--7--7--5--5--5--7--7--|-0--0--0--0--0--0--0--0--5--5--5--3--3--3--2--2--|
D|-------------------------------------------------|-------------------------------------------------|
A|-------------------------------------------------|-------------------------------------------------|
E|-------------------------------------------------|-------------------------------------------------|


E|-------------------------------------------------|-------------------------------------------------|
B|-------------------------------------------------|-------------------------------------------------|
G|-0--0--0--0--0--0--0--0--5--5--5--3--3--3--2--2--|-0--0--0--0--0--0--0--0--5--5--5--3--3--3--2--2--|
D|-------------------------------------------------|-------------------------------------------------|
A|-------------------------------------------------|-------------------------------------------------|
E|-------------------------------------------------|-------------------------------------------------|


E|-------------------------------------------------|-----------------------------------|
B|-------------------------------------------------|-3--3--3--3--3--3--3--3--3---------|
G|-3--3--3--3--3--3--3--3--7--7--7--5--5--5--7--7--|-0--0--0--0--0--0--0--0--0---------|
D|-------------------------------------------------|-----------------------------------|
A|-------------------------------------------------|-----------------------------------|
E|-------------------------------------------------|-----------------------------------|





Track 2: Untitled

E|--------|--------|--------|--------|--------|--------|--------|--------|------------------------|
B|--------|--------|--------|--------|--------|--------|--------|--------|------------------------|
G|--------|--------|--------|--------|--------|--------|--------|--------|------------------------|
D|--------|--------|--------|--------|--------|--------|--------|--------|-4---5----9----4----4---|
A|--------|--------|--------|--------|--------|--------|--------|--------|------------------------|
E|--------|--------|--------|--------|--------|--------|--------|--------|------------------------|


E|------------------------|------------------------|------------------------|------------------------|
B|------------------------|------------------------|------------------------|------------------------|
G|------------------------|------------------------|------------------------|------------------------|
D|-4---5----4---5----4----|-4---5----9----4----4---|-4---5----4--------4----|-4---5----9----4----4---|
A|------------------------|------------------------|--------------5---------|------------------------|
E|------------------------|------------------------|------------------------|------------------------|


E|------------------------|------------------------|------------------------|--------|
B|------------------------|------------------------|------------------------|--------|
G|------------------------|------------------------|------------------------|--------|
D|-4---5----4---5----4----|-4---5----9----4----4---|-4---5----4--------4----|--------|
A|------------------------|------------------------|--------------5---------|--------|
E|------------------------|------------------------|------------------------|--------|


E|--------|--------|--------|--------|--------|--------|--------|-----------22--22-22-22-22-|
B|--------|--------|--------|--------|--------|--------|--------|-----------22--22-22-22-22-|
G|--------|--------|--------|--------|--------|--------|--------|-----------22--22-22-22-22-|
D|--------|--------|--------|--------|--------|--------|--------|-----------4---4--5--4--5--|
A|--------|--------|--------|--------|--------|--------|--------|---------------------------|
E|--------|--------|--------|--------|--------|--------|--------|---------------------------|


E|-----------22--22---|-----------22--22-22-22-22-|-----------22--22---|-----------22--22-22-22-22-|
B|-----------22--22---|-----------22--22-22-22-22-|-----------22--22---|-----------22--22-22-22-22-|
G|-----------22--22---|-----------22--22-22-22-22-|-----------22--22---|-----------22--22-22-22-22-|
D|-----------4---5----|-----------4---4--5--4--5--|-----------4---5----|-----------4---4--5--4--5--|
A|--------------------|---------------------------|--------------------|---------------------------|
E|--------------------|---------------------------|--------------------|---------------------------|


E|-----------22--22---|-----------22--22-22-22-22-|--------|--------|--------|--------|
B|-----------22--22---|-----------22--22-22-22-22-|--------|--------|--------|--------|
G|-----------22--22---|-----------22--22-22-22-22-|--------|--------|--------|--------|
D|-----------4---5----|-----------4---4--5--4--5--|--------|--------|--------|--------|
A|--------------------|---------------------------|--------|--------|--------|--------|
E|--------------------|---------------------------|--------|--------|--------|--------|


E|--------|--------|--------|--------|--------|--------|--------|--------|--------|
B|--------|--------|--------|--------|--------|--------|--------|--------|--------|
G|--------|--------|--------|--------|--------|--------|--------|--------|--------|
D|--------|--------|--------|--------|--------|--------|--------|--------|--------|
A|--------|--------|--------|--------|--------|--------|--------|--------|--------|
E|--------|--------|--------|--------|--------|--------|--------|--------|--------|


E|--------|--------|--------|--------|--------|---------------------------------------------|
B|--------|--------|--------|--------|--------|---------------------------------------------|
G|--------|--------|--------|--------|--------|-5---5---------------------------------------|
D|--------|--------|--------|--------|--------|-5---5---------------------------------------|
A|--------|--------|--------|--------|--------|-3---3---1--1--3--3--4--4--3--3--1--1--3--3--|
E|--------|--------|--------|--------|--------|---------------------------------------------|


E|---------------------------------------------|---------------------------------------------|
B|---------------------------------------------|---------------------------------------------|
G|-5---5---------------------------------------|-5---5---------------------------------------|
D|-5---5---------------------------------------|-5---5---------------------------------------|
A|-3---3---1--1--3--3--4--4--3--3--1--1--3--3--|-3---3---1--1--3--3--4--4--3--3--1--1--3--3--|
E|---------------------------------------------|---------------------------------------------|


E|---------------------------------------------|---------------------------------------------|
B|---------------------------------------------|---------------------------------------------|
G|---------------------------------------------|-5---5---------------------------------------|
D|-3---3---------------------------------------|-5---5---------------------------------------|
A|-3---3---3--3--5--5--6--6--5--5--6--6--5--5--|-3---3---1--1--3--3--4--4--3--3--1--1--3--3--|
E|-1---1---------------------------------------|---------------------------------------------|


E|---------------------------------------------|---------------------------------------------|
B|---------------------------------------------|---------------------------------------------|
G|-5---5---------------------------------------|-5---5---------------------------------------|
D|-5---5---------------------------------------|-5---5---------------------------------------|
A|-3---3---1--1--3--3--4--4--3--3--1--1--3--3--|-3---3---1--1--3--3--4--4--3--3--1--1--3--3--|
E|---------------------------------------------|---------------------------------------------|


E|--------|------------------------------|-----------------|------------------------------|
B|--------|------------------------------|-----------------|------------------------------|
G|--------|------------------------------|-----------------|------------------------------|
D|--------|-------------4----------------|-2---------------|-------------4----------------|
A|--------|-------------2---6----4---6---|-0-----6----4----|-------------2---6----4---6---|
E|--------|-0---0---0-------4----2---4---|-------4----2----|-0---0---0-------4----2---4---|


E|-----------------|------------------------------|-----------------|------------------------------|
B|-----------------|------------------------------|-----------------|------------------------------|
G|-----------------|------------------------------|-----------------|------------------------------|
D|-2---------------|-------------4----------------|-2---------------|-------------4----------------|
A|-0-----6----4----|-------------2---6----4---6---|-0-----6----4----|-------------2---6----4---6---|
E|-------4----2----|-0---0---0-------4----2---4---|-------4----2----|-0---0---0-------4----2---4---|


E|-----------------|------------------------------|-----------------|------------------------------|
B|-----------------|------------------------------|-----------------|------------------------------|
G|-----------------|------------------------------|-----------------|------------------------------|
D|-2---------------|-------------4----------------|-2---------------|-------------4----------------|
A|-0-----6----4----|-------------2---6----4---6---|-0-----6----4----|-------------2---6----4---6---|
E|-------4----2----|-0---0---0-------4----2---4---|-------4----2----|-0---0---0-------4----2---4---|


E|-----------------|------------------------------|-----------------|------------------------------|
B|-----------------|------------------------------|-----------------|------------------------------|
G|-----------------|------------------------------|-----------------|------------------------------|
D|-2---------------|-------------4----------------|-2---------------|-------------4----------------|
A|-0-----6----4----|-------------2---6----4---6---|-0-----6----4----|-------------2---6----4---6---|
E|-------4----2----|-0---0---0-------4----2---4---|-------4----2----|-0---0---0-------4----2---4---|


E|--------|------------------------|------------------------|------------------------|
B|--------|------------------------|------------------------|------------------------|
G|-2------|-----------5----3---2---|-----------5----3---2---|-----------5----3---2---|
D|-2------|-5-----5---5----3---2---|-5-----5---5----3---2---|-5-----5---5----3---2---|
A|-0------|-5-----5---3----1---0---|-5-----5---3----1---0---|-5-----5---3----1---0---|
E|--------|-3-----3----------------|-3-----3----------------|-3-----3----------------|


E|------------------------|------------------------|------------------------|------------------------|
B|------------------------|------------------------|------------------------|------------------------|
G|-3----------------------|-----------5----3---2---|-----------5----3---2---|-----------5----3---2---|
D|-3----3----5----3---2---|-5-----5---5----3---2---|-5-----5---5----3---2---|-5-----5---5----3---2---|
A|-1----3----5----3---2---|-5-----5---3----1---0---|-5-----5---3----1---0---|-5-----5---3----1---0---|
E|------1----3----1---0---|-3-----3----------------|-3-----3----------------|-3-----3----------------|


E|------------------------|------------------------|------------------------|------------------------|
B|------------------------|------------------------|------------------------|------------------------|
G|-3----------------------|-----------5----3---2---|-----------5----3---2---|-----------5----3---2---|
D|-3----3----5----3---2---|-5-----5---5----3---2---|-5-----5---5----3---2---|-5-----5---5----3---2---|
A|-1----3----5----3---2---|-5-----5---3----1---0---|-5-----5---3----1---0---|-5-----5---3----1---0---|
E|------1----3----1---0---|-3-----3----------------|-3-----3----------------|-3-----3----------------|


E|------------------------|------------------------|------------------------|------------------------|
B|------------------------|------------------------|------------------------|------------------------|
G|-3----------------------|-----------5----3---2---|-----------5----3---2---|-----------5----3---2---|
D|-3----3----5----3---2---|-5-----5---5----3---2---|-5-----5---5----3---2---|-5-----5---5----3---2---|
A|-1----3----5----3---2---|-5-----5---3----1---0---|-5-----5---3----1---0---|-5-----5---3----1---0---|
E|------1----3----1---0---|-3-----3----------------|-3-----3----------------|-3-----3----------------|


E|---------------------|--------|--------|--------|--------|--------|--------|--------|
B|---------------------|--------|--------|--------|--------|--------|--------|--------|
G|-3-------------------|--------|--------|--------|--------|--------|--------|--------|
D|-3----3----5---------|--------|--------|--------|--------|--------|--------|--------|
A|-1----3----5---------|--------|--------|--------|--------|--------|--------|--------|
E|------1----3---------|--------|--------|--------|--------|--------|--------|--------|


E|--------|--------|--------|--------|--------|---------------------|---------------------|
B|--------|--------|--------|--------|--------|---------------------|---------------------|
G|--------|--------|--------|--------|--------|-------5----3----2---|-------5----3----2---|
D|--------|--------|--------|--------|--------|-5-----5----3----2---|-5-----5----3----2---|
A|--------|--------|--------|--------|--------|-5-----3----1----0---|-5-----3----1----0---|
E|--------|--------|--------|--------|--------|-3-------------------|-3-------------------|


E|---------------------|---------------------|---------------------|---------------------|
B|---------------------|---------------------|---------------------|---------------------|
G|-------5----3----2---|-3-----7----5----7---|-------5----3----2---|-------5----3----2---|
D|-5-----5----3----2---|-3-----7----5----7---|-5-----5----3----2---|-5-----5----3----2---|
A|-5-----3----1----0---|-1-----5----3----5---|-5-----3----1----0---|-5-----3----1----0---|
E|-3-------------------|---------------------|-3-------------------|-3-------------------|


E|---------------------|---------------------|---------------------|---------------------|
B|---------------------|---------------------|---------------------|---------------------|
G|-------5----3----2---|-3-----7----5----7---|-------5----3----2---|-------5----3----2---|
D|-5-----5----3----2---|-3-----7----5----7---|-5-----5----3----2---|-5-----5----3----2---|
A|-5-----3----1----0---|-1-----5----3----5---|-5-----3----1----0---|-5-----3----1----0---|
E|-3-------------------|---------------------|-3-------------------|-3-------------------|


E|---------------------|---------------------|-----------------------------------|
B|---------------------|---------------------|-----------------------------------|
G|-------5----3----2---|-3-----7----5----7---|-----------------------------------|
D|-5-----5----3----2---|-3-----7----5----7---|-5--5--5--5--5--5--5--5--5---------|
A|-5-----3----1----0---|-1-----5----3----5---|-5--5--5--5--5--5--5--5--5---------|
E|-3-------------------|---------------------|-3--3--3--3--3--3--3--3--3---------|





Track 3: Untitled

E|--------|--------|--------|--------|--------|--------|--------|--------|--------|
B|--------|--------|--------|--------|--------|--------|--------|--------|--------|
G|--------|--------|--------|--------|--------|--------|--------|--------|--------|
D|--------|--------|--------|--------|--------|--------|--------|--------|--------|
A|--------|--------|--------|--------|--------|--------|--------|--------|--------|
E|--------|--------|--------|--------|--------|--------|--------|--------|--------|


E|--------|--------|--------|--------|--------|--------|--------|--------|--------|
B|--------|--------|--------|--------|--------|--------|--------|--------|--------|
G|--------|--------|--------|--------|--------|--------|--------|--------|--------|
D|--------|--------|--------|--------|--------|--------|--------|--------|--------|
A|--------|--------|--------|--------|--------|--------|--------|--------|--------|
E|--------|--------|--------|--------|--------|--------|--------|--------|--------|


E|--------|--------|--------|--------|--------|--------|--------|--------|--------|
B|--------|--------|--------|--------|--------|--------|--------|--------|--------|
G|--------|--------|--------|--------|--------|--------|--------|--------|--------|
D|--------|--------|--------|--------|--------|--------|--------|--------|--------|
A|--------|--------|--------|--------|--------|--------|--------|--------|--------|
E|--------|--------|--------|--------|--------|--------|--------|--------|--------|


E|--------|--------|--------|--------|--------|--------|--------|--------|--------|
B|--------|--------|--------|--------|--------|--------|--------|--------|--------|
G|--------|--------|--------|--------|--------|--------|--------|--------|--------|
D|--------|--------|--------|--------|--------|--------|--------|--------|--------|
A|--------|--------|--------|--------|--------|--------|--------|--------|--------|
E|--------|--------|--------|--------|--------|--------|--------|--------|--------|


E|--------|--------|--------|--------|--------|--------|--------|--------|--------|
B|--------|--------|--------|--------|--------|--------|--------|--------|--------|
G|--------|--------|--------|--------|--------|--------|--------|--------|--------|
D|--------|--------|--------|--------|--------|--------|--------|--------|--------|
A|--------|--------|--------|--------|--------|--------|--------|--------|--------|
E|--------|--------|--------|--------|--------|--------|--------|--------|--------|


E|--------|--------|--------|--------|--------|--------|--------|--------|--------|
B|--------|--------|--------|--------|--------|--------|--------|--------|--------|
G|--------|--------|--------|--------|--------|--------|--------|--------|--------|
D|--------|--------|--------|--------|--------|--------|--------|--------|--------|
A|--------|--------|--------|--------|--------|--------|--------|--------|--------|
E|--------|--------|--------|--------|--------|--------|--------|--------|--------|


E|--------|--------|--------|--------|--------|--------|--------|--------|--------|
B|--------|--------|--------|--------|--------|--------|--------|--------|--------|
G|--------|--------|--------|--------|--------|--------|--------|--------|--------|
D|--------|--------|--------|--------|--------|--------|--------|--------|--------|
A|--------|--------|--------|--------|--------|--------|--------|--------|--------|
E|--------|--------|--------|--------|--------|--------|--------|--------|--------|


E|--------|--------|--------|--------|--------|--------|--------|--------|--------|
B|--------|--------|--------|--------|--------|--------|--------|--------|--------|
G|--------|--------|--------|--------|--------|--------|--------|--------|--------|
D|--------|--------|--------|--------|--------|--------|--------|--------|--------|
A|--------|--------|--------|--------|--------|--------|--------|--------|--------|
E|--------|--------|--------|--------|--------|--------|--------|--------|--------|


E|--------|--------|--------|--------|--------|--------|--------|--------|--------|
B|--------|--------|--------|--------|--------|--------|--------|--------|--------|
G|--------|--------|--------|--------|--------|--------|--------|--------|--------|
D|--------|--------|--------|--------|--------|--------|--------|--------|--------|
A|--------|--------|--------|--------|--------|--------|--------|--------|--------|
E|--------|--------|--------|--------|--------|--------|--------|--------|--------|


E|--------|--------|--------|--------|--------|--------|--------|----------------|
B|--------|--------|--------|--------|--------|--------|--------|----------------|
G|--------|--------|--------|--------|--------|--------|--------|----------------|
D|--------|--------|--------|--------|--------|--------|--------|--------3---2---|
A|--------|--------|--------|--------|--------|--------|--------|--------3---2---|
E|--------|--------|--------|--------|--------|--------|--------|--------1---0---|


E|---------------------------------|---------------------------------|---------------------------------|
B|---------------------------------|---------------------------------|---------------------------------|
G|---------------------------------|---------------------------------|---------------------------------|
D|---------2---------------2-------|---------2---------------2-------|---------2---------------2-------|
A|-----2---------------2-----------|-----1---------------0-----------|-----2---------------2-----------|
E|-0-----------0---3-----------3---|-2-----------2---1-----------1---|-0-----------0---3-----------3---|


E|---------------------------------|---------------------------------|---------------------------------|
B|---------------------------------|---------------------------------|---------------------------------|
G|---------------------------------|---------------------------------|---------------------------------|
D|---------2---------------2-------|---------2---------------2-------|---------2---------------2-------|
A|-----1---------------0-----------|-----2---------------2-----------|-----1---------------0-----------|
E|-2-----------2---1-----------1---|-0-----------0---3-----------3---|-2-----------2---1-----------1---|


E|---------------------------------|---------------------------------|--------|--------|
B|---------------------------------|---------------------------------|--------|--------|
G|---------------------------------|---------------------------------|--------|--------|
D|---------2---------------2-------|---------2---------------2-------|--------|--------|
A|-----2---------------2-----------|-----1---------------0-----------|--------|--------|
E|-0-----------0---3-----------3---|-2-----------2---1-----------1---|--------|--------|


E|--------|--------|--------|--------|--------|--------|--------|--------|--------|
B|--------|--------|--------|--------|--------|--------|--------|--------|--------|
G|--------|--------|--------|--------|--------|--------|--------|--------|--------|
D|--------|--------|--------|--------|--------|--------|--------|--------|--------|
A|--------|--------|--------|--------|--------|--------|--------|--------|--------|
E|--------|--------|--------|--------|--------|--------|--------|--------|--------|


E|--------|--------|--------|--------|--------|--------|
B|--------|--------|--------|--------|--------|--------|
G|--------|--------|--------|--------|--------|--------|
D|--------|--------|--------|--------|--------|--------|
A|--------|--------|--------|--------|--------|--------|
E|--------|--------|--------|--------|--------|--------|





Track 4: Untitled

G|-0----5---0----5---5---0---|-0----5---0----5---0----|-0----5---0----5---5---0---|
D|---------------------------|------------------------|---------------------------|
A|---------------------------|------------------------|---------------------------|
E|---------------------------|------------------------|---------------------------|


G|-0----5---0----5---0----|-0----5---0----5---5---0---|-0----5---0----5---0----|-0----5---0----5---5---0---|
D|------------------------|---------------------------|------------------------|---------------------------|
A|------------------------|---------------------------|------------------------|---------------------------|
E|------------------------|---------------------------|------------------------|---------------------------|


G|-0----5---0----5---0----|-0----5---0----5---5---0---|-0----5---0----5---0----|-0----5---0----5---5---0---|
D|------------------------|---------------------------|------------------------|---------------------------|
A|------------------------|---------------------------|------------------------|---------------------------|
E|------------------------|---------------------------|------------------------|---------------------------|


G|-0----5---0----5---0----|-0----5---0----5---5---0---|-0----5---0----5---0----|-0----5---0----5---5---0---|
D|------------------------|---------------------------|------------------------|---------------------------|
A|------------------------|---------------------------|------------------------|---------------------------|
E|------------------------|---------------------------|------------------------|---------------------------|


G|-0----5---0----5---0----|-0----5---0----5---5---0---|-0----5---0----5---0----|-0----5---0----5---5---0---|
D|------------------------|---------------------------|------------------------|---------------------------|
A|------------------------|---------------------------|------------------------|---------------------------|
E|------------------------|---------------------------|------------------------|---------------------------|


G|-0----5---0----5---0----|-0----5---0----5---5---0---|-0----5---0----5---0----|-0----5---0----5---5---0---|
D|------------------------|---------------------------|------------------------|---------------------------|
A|------------------------|---------------------------|------------------------|---------------------------|
E|------------------------|---------------------------|------------------------|---------------------------|


G|-0----0----0----0----|-0----5---0----5---5---0---|-0----5---0----5---0----|-0----5---0----5---5---0---|
D|---------------------|---------------------------|------------------------|---------------------------|
A|---------------------|---------------------------|------------------------|---------------------------|
E|---------------------|---------------------------|------------------------|---------------------------|


G|-0----5---0----5---0----|-0----5---0----5---5---0---|-0----5---0----5---0----|-0----5---0----5---5---0---|
D|------------------------|---------------------------|------------------------|---------------------------|
A|------------------------|---------------------------|------------------------|---------------------------|
E|------------------------|---------------------------|------------------------|---------------------------|


G|--------|--------|--------|--------|--------|--------|--------|--------|--------|
D|--------|--------|--------|--------|--------|--------|--------|--------|--------|
A|--------|--------|--------|--------|--------|--------|--------|--------|--------|
E|--------|--------|--------|--------|--------|--------|--------|--------|--------|


G|--------|--------|--------|--------|--------|--------|--------|--------|--------|
D|--------|--------|--------|--------|--------|--------|--------|--------|--------|
A|--------|--------|--------|--------|--------|--------|--------|--------|--------|
E|--------|--------|--------|--------|--------|--------|--------|--------|--------|


G|--------|--------|--------|--------|--------|--------|--------|--------|--------|
D|--------|--------|--------|--------|--------|--------|--------|--------|--------|
A|--------|--------|--------|--------|--------|--------|--------|--------|--------|
E|--------|--------|--------|--------|--------|--------|--------|--------|--------|


G|--------|--------|--------|--------|--------|--------|--------|--------|--------|
D|--------|--------|--------|--------|--------|--------|--------|--------|--------|
A|--------|--------|--------|--------|--------|--------|--------|--------|--------|
E|--------|--------|--------|--------|--------|--------|--------|--------|--------|


G|--------|--------|--------|--------|--------|--------|--------|--------|--------|
D|--------|--------|--------|--------|--------|--------|--------|--------|--------|
A|--------|--------|--------|--------|--------|--------|--------|--------|--------|
E|--------|--------|--------|--------|--------|--------|--------|--------|--------|


G|--------|--------|--------|--------|--------|--------|--------|--------|--------|
D|--------|--------|--------|--------|--------|--------|--------|--------|--------|
A|--------|--------|--------|--------|--------|--------|--------|--------|--------|
E|--------|--------|--------|--------|--------|--------|--------|--------|--------|


G|--------|--------|--------|--------|--------|--------|--------|--------|--------|
D|--------|--------|--------|--------|--------|--------|--------|--------|--------|
A|--------|--------|--------|--------|--------|--------|--------|--------|--------|
E|--------|--------|--------|--------|--------|--------|--------|--------|--------|


G|--------|--------|--------|--------|--------|--------|--------|--------|--------|
D|--------|--------|--------|--------|--------|--------|--------|--------|--------|
A|--------|--------|--------|--------|--------|--------|--------|--------|--------|
E|--------|--------|--------|--------|--------|--------|--------|--------|--------|


G|--------|--------|--------|--------|--------|--------|--------|--------|--------|
D|--------|--------|--------|--------|--------|--------|--------|--------|--------|
A|--------|--------|--------|--------|--------|--------|--------|--------|--------|
E|--------|--------|--------|--------|--------|--------|--------|--------|--------|


G|--------|--------|
D|--------|--------|
A|--------|--------|
E|--------|--------|





Track 5: Untitled

G|---------------------------|------------------------|---------------------------|
D|---------------------------|------------------------|---------------------------|
A|---------------------------|-------------------2----|---------------------------|
E|-0----2---0----0---2---2---|-0----2---0----0--------|-0----2---0----0---2---2---|


G|------------------------|---------------------------|------------------------|---------------------------|
D|------------------------|---------------------------|------------------------|---------------------------|
A|-------------------2----|---------------------------|-------------------2----|---------------------------|
E|-0----2---0----0--------|-0----2---0----0---2---2---|-0----2---0----0--------|-0----2---0----0---2---2---|


G|------------------------|---------------------------|------------------------|---------------------------|
D|------------------------|---------------------------|------------------------|---------------------------|
A|-------------------2----|---------------------------|-------------------2----|---------------------------|
E|-0----2---0----0--------|-0----2---0----0---2---2---|-0----2---0----0--------|-0----2---0----0---2---2---|


G|------------------------|---------------------------|------------------------|---------------------------|
D|------------------------|---------------------------|------------------------|---------------------------|
A|-------------------2----|---------------------------|-------------------2----|---------------------------|
E|-0----2---0----0--------|-0----2---0----0---2---2---|-0----2---0----0--------|-0----2---0----0---2---2---|


G|------------------------|---------------------------|------------------------|---------------------------|
D|------------------------|---------------------------|------------------------|---------------------------|
A|-------------------2----|---------------------------|-------------------2----|---------------------------|
E|-0----2---0----0--------|-0----2---0----0---2---2---|-0----2---0----0--------|-0----2---0----0---2---2---|


G|------------------------|---------------------------|------------------------|---------------------------|
D|------------------------|---------------------------|------------------------|---------------------------|
A|-------------------2----|---------------------------|-------------------2----|---------------------------|
E|-0----2---0----0--------|-0----2---0----0---2---2---|-0----2---0----0--------|-0----2---0----0---2---2---|


G|--------------------|---------------------------|------------------------|---------------------------|
D|--------------------|---------------------------|------------------------|---------------------------|
A|--------------------|---------------------------|-------------------2----|---------------------------|
E|-0------------------|-0----2---0----0---2---2---|-0----2---0----0--------|-0----2---0----0---2---2---|


G|------------------------|---------------------------|------------------------|---------------------------|
D|------------------------|---------------------------|------------------------|---------------------------|
A|-------------------2----|---------------------------|-------------------2----|---------------------------|
E|-0----2---0----0--------|-0----2---0----0---2---2---|-0----2---0----0--------|-0----2---0----0---2---2---|


G|---------------------------|------------------------|---------------------------------|
D|-4---5----4---2---4----2---|-0---2----0-------------|---------------------------------|
A|---------------------------|--------------4----0----|-3---3---3-----------------------|
E|---------------------------|------------------------|-------------4---3---3---4---4---|


G|---------------------------------|---------------------------------|---------------------------------|
D|---------------------------------|---------------------------------|---------------------------------|
A|-3---3---3-----------------------|-3---3---3-----------------------|---------------------------------|
E|-------------4---3---3---4---4---|-------------4---3---3---4---4---|-1---1---1---3---4---3---4---3---|


G|---------------------------------|---------------------------------|---------------------------------|
D|---------------------------------|---------------------------------|---------------------------------|
A|-3---3---3-----------------------|-3---3---3-----------------------|-3---3---3-----------------------|
E|-------------4---3---3---4---4---|-------------4---3---3---4---4---|-------------4---3---3---4---4---|


G|---------------------------------|---------------------------------|---------------------------------|
D|---------------------------------|---------------------------------|---------------------------------|
A|---------------------------------|-3---3---3-----------------------|-3---3---3-----------------------|
E|-1---1---1---3---4---3---4---3---|-------------4---3---3---4---4---|-------------4---3---3---4---4---|


G|---------------------------------|---------------------------------|---------------------------------|
D|---------------------------------|---------------------------------|---------------------------------|
A|-3---3---3-----------------------|---------------------------------|-3---3---3-----------------------|
E|-------------4---3---3---4---4---|-1---1---1---3---4---3---4---3---|-------------4---3---3---4---4---|


G|---------------------------------|---------------------------------|---------------------------------|
D|---------------------------------|---------------------------------|---------------------------------|
A|-3---3---3-----------------------|-3---3---3-----------------------|---------------------------------|
E|-------------4---3---3---4---4---|-------------4---3---3---4---4---|-1---1---1---3---4---3---4---3---|


G|---------------------------------|---------------------------------|---------------------------------|
D|---------------------------------|---------------------------------|---------------------------------|
A|-3---3---3-----------------------|-3---3---3-----------------------|-3---3---3-----------------------|
E|-------------4---3---3---4---4---|-------------4---3---3---4---4---|-------------4---3---3---4---4---|


G|---------------------------------|---------------------------------|---------------------------------|
D|---------------------------------|---------------------------------|---------------------------------|
A|---------------------------------|-3---3---3-----------------------|-3---3---3-----------------------|
E|-1---1---1---3---4---3---4---3---|-------------4---3---3---4---4---|-------------4---3---3---4---4---|


G|---------------------------------|-----------------------|---------------------------------|
D|---------------------------------|-----------------------|---------------------------------|
A|-3---3---3-----------------------|-----------------------|-------------2-------------------|
E|-------------4---3---3---4---4---|-1---1---1-------------|-0---0---0-------4---4---2---4---|


G|---------------------------------|---------------------------------|---------------------------------|
D|---------------------------------|---------------------------------|---------------------------------|
A|-0---0---0---0-------------------|-------------2-------------------|-0---0---0---0-------------------|
E|-----------------4---4---2---2---|-0---0---0-------4---4---2---4---|-----------------4---4---2---2---|


G|---------------------------------|---------------------------------|---------------------------------|
D|---------------------------------|---------------------------------|---------------------------------|
A|-------------2-------------------|-0---0---0---0-------------------|-------------2-------------------|
E|-0---0---0-------4---4---2---4---|-----------------4---4---2---2---|-0---0---0-------4---4---2---4---|


G|---------------------------------|---------------------------------|---------------------------------|
D|---------------------------------|---------------------------------|---------------------------------|
A|-0---0---0---0-------------------|-------------2-------------------|-0---0---0---0-------------------|
E|-----------------4---4---2---2---|-0---0---0-------4---4---2---4---|-----------------4---4---2---2---|


G|---------------------------------|---------------------------------|---------------------------------|
D|---------------------------------|---------------------------------|---------------------------------|
A|-------------2-------------------|-0---0---0---0-------------------|-------------2-------------------|
E|-0---0---0-------4---4---2---4---|-----------------4---4---2---2---|-0---0---0-------4---4---2---4---|


G|---------------------------------|---------------------------------|--------|---------------------------------|
D|---------------------------------|---------------------------------|--------|---------------------------------|
A|-0---0---0---0-------------------|-------------2-------------------|-0------|-----------------3---3---1---0---|
E|-----------------4---4---2---2---|-0---0---0-------4---4---2---4---|--------|-3---3---3---3-------------------|


G|---------------------------------|---------------------------------|---------------------------------|
D|---------------------------------|---------------------------------|---------------------------------|
A|-----------------3---3---1---0---|-----------------3---3---1---0---|-1---1---------------------------|
E|-3---3---3---3-------------------|-3---3---3---3-------------------|---------1---1---3---3---1---0---|


G|---------------------------------|---------------------------------|---------------------------------|
D|---------------------------------|---------------------------------|---------------------------------|
A|-----------------3---3---1---0---|-----------------3---3---1---0---|-----------------3---3---1---0---|
E|-3---3---3---3-------------------|-3---3---3---3-------------------|-3---3---3---3-------------------|


G|---------------------------------|---------------------------------|---------------------------------|
D|---------------------------------|---------------------------------|---------------------------------|
A|-1---1---------------------------|-----------------3---3---1---0---|-----------------3---3---1---0---|
E|---------1---1---3---3---1---0---|-3---3---3---3-------------------|-3---3---3---3-------------------|


G|---------------------------------|---------------------------------|---------------------------------|
D|---------------------------------|---------------------------------|---------------------------------|
A|-----------------3---3---1---0---|-1---1---------------------------|-----------------3---3---1---0---|
E|-3---3---3---3-------------------|---------1---1---3---3---1---0---|-3---3---3---3-------------------|


G|---------------------------------|---------------------------------|---------------------------------|
D|---------------------------------|---------------------------------|---------------------------------|
A|-----------------3---3---1---0---|-----------------3---3---1---0---|-1---1---------------------------|
E|-3---3---3---3-------------------|-3---3---3---3-------------------|---------1---1---3---3---1---0---|


G|---------------------|---------------------|---------------------|---------------------|
D|---------------------|---------------------|---------------------|---------------------|
A|---------------------|---------------------|---------------------|---------------------|
E|-0-----0---3-----3---|-2-----2---1-----1---|-0-----0---3-----3---|-2-----2---1-----1---|


G|---------------------------------|---------------------------------|---------------------------------|
D|---------------------------------|---------------------------------|---------------------------------|
A|---------------------------------|---------------------------------|---------------------------------|
E|-0---0---0---0---3---3---3---3---|-2---2---2---2---1---1---1---1---|-0---0---0---0---3---3---3---3---|


G|---------------------------------|-0--0--------------|-0--0--------------|-0--0--------------|
D|---------------------------------|-------------------|-------------------|-------------------|
A|---------------------------------|-------------------|-------------------|-------------------|
E|-2---2---2---2---1---1---1---1---|-------------------|-------------------|-------------------|


G|-3--3--------7--7--7--5--5--5--7--7--|-0--0--0--0--0--0--0--0--5--5--5--3--3--3--2--2--|
D|-------------------------------------|-------------------------------------------------|
A|-------------------------------------|-------------------------------------------------|
E|-------------------------------------|-------------------------------------------------|


G|-0--0--0--0--0--0--0--0--5--5--5--3--3--3--2--2--|-0--0--0--0--0--0--0--0--5--5--5--3--3--3--2--2--|
D|-------------------------------------------------|-------------------------------------------------|
A|-------------------------------------------------|-------------------------------------------------|
E|-------------------------------------------------|-------------------------------------------------|


G|-3--3--3--3--3--3--3--3--7--7--7--5--5--5--7--7--|-0--0--0--0--0--0--0--0--5--5--5--3--3--3--2--2--|
D|-------------------------------------------------|-------------------------------------------------|
A|-------------------------------------------------|-------------------------------------------------|
E|-------------------------------------------------|-------------------------------------------------|


G|-0--0--0--0--0--0--0--0--5--5--5--3--3--3--2--2--|-0--0--0--0--0--0--0--0--5--5--5--3--3--3--2--2--|
D|-------------------------------------------------|-------------------------------------------------|
A|-------------------------------------------------|-------------------------------------------------|
E|-------------------------------------------------|-------------------------------------------------|


G|-3--3--3--3--3--3--3--3--7--7--7--5--5--5--7--7--|-0--0--0--0--0--0--0--0--5--5--5--3--3--3--2--2--|
D|-------------------------------------------------|-------------------------------------------------|
A|-------------------------------------------------|-------------------------------------------------|
E|-------------------------------------------------|-------------------------------------------------|


G|-0--0--0--0--0--0--0--0--5--5--5--3--3--3--2--2--|-0--0--0--0--0--0--0--0--5--5--5--3--3--3--2--2--|
D|-------------------------------------------------|-------------------------------------------------|
A|-------------------------------------------------|-------------------------------------------------|
E|-------------------------------------------------|-------------------------------------------------|


G|-3--3--3--3--3--3--3--3--7--7--7--5--5--5--7--7--|-0--0--0--0--0--0--0--0--0---------|
D|-------------------------------------------------|-----------------------------------|
A|-------------------------------------------------|-----------------------------------|
E|-------------------------------------------------|-----------------------------------|