Menu:

 

Search:

 

470 frames - working title:

 



Title: Working Title
Artist: 
Album: 
Author: Alex Wight


Track 1: Guitar 1 Clean

E|---------------------------------|---------------------------------|---------------------------------|
B|---------------------------------|---------------------------------|---------------------------------|
G|---------4-----------4-----------|-2-----------4-----------4-------|-----4-----------2-----------4---|
D|-----4-----------0-----------2---|---------2-----------4-----------|-0-----------2-----------2-------|
A|-2-----------------------0-------|-----0-----------2---------------|---------0-----------0-----------|
E|-------------3-------------------|-----------------------------3---|---------------------------------|


E|---------------------------------|---------------------------------|---------------------------------|
B|---------------------------------|---------------------------------|---------------------------------|
G|---------4-----------4-----------|-2-----------4-----------4-------|-----4-----------2-----------4---|
D|-----4-----------0-----------2---|---------2-----------4-----------|-0-----------2-----------2-------|
A|-2-----------------------0-------|-----0-----------2---------------|---------0-----------0-----------|
E|-------------3-------------------|-----------------------------3---|---------------------------------|


E|---------------------------------|---------------------------------|---------------------------------|
B|---------------------------------|---------------------------------|---------------------------------|
G|---------4-----------4-----------|-2-----------4-----------4-------|-----4-----------2-----------4---|
D|-----4-----------0-----------2---|---------2-----------4-----------|-0-----------2-----------2-------|
A|-2-----------------------0-------|-----0-----------2---------------|---------0-----------0-----------|
E|-------------3-------------------|-----------------------------3---|---------------------------------|


E|---------------------------------|---------------------------------|---------------------------------|
B|---------------------------------|---------------------------------|---------------------------------|
G|---------4-----------4-----------|-2-----------4-----------4-------|-----4-----------2-----------4---|
D|-----4-----------0-----------2---|---------2-----------4-----------|-0-----------2-----------2-------|
A|-2-----------------------0-------|-----0-----------2---------------|---------0-----------0-----------|
E|-------------3-------------------|-----------------------------3---|---------------------------------|


E|---------------------------------|---------------------------------|---------------------------------|
B|---------------------------------|---------------------------------|---------------------------------|
G|---------4-----------4-----------|-2-----------4-----------4-------|-----4-----------2-----------4---|
D|-----4-----------0-----------2---|---------2-----------4-----------|-0-----------2-----------2-------|
A|-2-----------------------0-------|-----0-----------2---------------|---------0-----------0-----------|
E|-------------3-------------------|-----------------------------3---|---------------------------------|


E|---------------------------------|---------------------------------|---------------------------------|
B|---------------------------------|---------------------------------|---------------------------------|
G|---------4-----------4-----------|-2-----------4-----------4-------|-----4-----------2-----------4---|
D|-----4-----------0-----------2---|---------2-----------4-----------|-0-----------2-----------2-------|
A|-2-----------------------0-------|-----0-----------2---------------|---------0-----------0-----------|
E|-------------3-------------------|-----------------------------3---|---------------------------------|


E|---------------------------------|---------------------------------|---------------------------------|
B|---------------------------------|---------------------------------|---------------------------------|
G|---------4-----------4-----------|-2-----------4-----------4-------|-----4-----------2-----------4---|
D|-----4-----------0-----------2---|---------2-----------4-----------|-0-----------2-----------2-------|
A|-2-----------------------0-------|-----0-----------2---------------|---------0-----------0-----------|
E|-------------3-------------------|-----------------------------3---|---------------------------------|


E|---------------------------------|---------------------------------|---------------------------------|
B|---------------------------------|---------------------------------|---------------------------------|
G|---------4-----------4-----------|-2-----------4-----------4-------|-----4-----------2-----------4---|
D|-----4-----------0-----------2---|---------2-----------4-----------|-0-----------2-----------2-------|
A|-2-----------------------0-------|-----0-----------2---------------|---------0-----------0-----------|
E|-------------3-------------------|-----------------------------3---|---------------------------------|


E|--------|--------|--------|--------|--------|--------|--------|--------|--------|
B|--------|--------|--------|--------|--------|--------|--------|--------|--------|
G|--------|--------|--------|--------|--------|--------|--------|--------|--------|
D|--------|--------|--------|--------|--------|--------|--------|--------|--------|
A|--------|--------|--------|--------|--------|--------|--------|--------|--------|
E|--------|--------|--------|--------|--------|--------|--------|--------|--------|


E|--------|--------|--------|---------------------------------|---------------------------------|
B|--------|--------|--------|---------------------------------|---------------------------------|
G|--------|--------|--------|---------4-----------4-----------|-2-----------4-----------4-------|
D|--------|--------|--------|-----4-----------0-----------2---|---------2-----------4-----------|
A|--------|--------|--------|-2-----------------------0-------|-----0-----------2---------------|
E|--------|--------|--------|-------------3-------------------|-----------------------------3---|


E|---------------------------------|---------------------------------|---------------------------------|
B|---------------------------------|---------------------------------|---------------------------------|
G|-----4-----------2-----------4---|---------4-----------4-----------|-2-----------4-----------4-------|
D|-0-----------2-----------2-------|-----4-----------0-----------2---|---------2-----------4-----------|
A|---------0-----------0-----------|-2-----------------------0-------|-----0-----------2---------------|
E|---------------------------------|-------------3-------------------|-----------------------------3---|


E|---------------------------------|--------|--------|--------|--------|--------|--------|
B|---------------------------------|--------|--------|--------|--------|--------|--------|
G|-----4-----------2-----------4---|--------|--------|--------|--------|--------|--------|
D|-0-----------2-----------2-------|--------|--------|--------|--------|--------|--------|
A|---------0-----------0-----------|--------|--------|--------|--------|--------|--------|
E|---------------------------------|--------|--------|--------|--------|--------|--------|


E|--------|--------|--------|--------|--------|--------|---------------------------------|
B|--------|--------|--------|--------|--------|--------|---------------------------------|
G|--------|--------|--------|--------|--------|--------|---------4-----------4-----------|
D|--------|--------|--------|--------|--------|--------|-----4-----------0-----------2---|
A|--------|--------|--------|--------|--------|--------|-2-----------------------0-------|
E|--------|--------|--------|--------|--------|--------|-------------3-------------------|


E|---------------------------------|---------------------------------|---------------------------------|
B|---------------------------------|---------------------------------|---------------------------------|
G|-2-----------4-----------4-------|-----4-----------2-----------4---|---------4-----------4-----------|
D|---------2-----------4-----------|-0-----------2-----------2-------|-----4-----------0-----------2---|
A|-----0-----------2---------------|---------0-----------0-----------|-2-----------------------0-------|
E|-----------------------------3---|---------------------------------|-------------3-------------------|


E|---------------------------------|---------------------------------|---------------------------------|
B|---------------------------------|---------------------------------|---------------------------------|
G|-2-----------4-----------4-------|-----4-----------2-----------4---|---------4-----------4-----------|
D|---------2-----------4-----------|-0-----------2-----------2-------|-----4-----------0-----------2---|
A|-----0-----------2---------------|---------0-----------0-----------|-2-----------------------0-------|
E|-----------------------------3---|---------------------------------|-------------3-------------------|


E|---------------------------------|---------------------------------|---------------------------------|
B|---------------------------------|---------------------------------|---------------------------------|
G|-2-----------4-----------4-------|-----4-----------2-----------4---|---------4-----------4-----------|
D|---------2-----------4-----------|-0-----------2-----------2-------|-----4-----------0-----------2---|
A|-----0-----------2---------------|---------0-----------0-----------|-2-----------------------0-------|
E|-----------------------------3---|---------------------------------|-------------3-------------------|


E|---------------------------------|---------------------------------|---------------------------------|
B|---------------------------------|---------------------------------|---------------------------------|
G|-2-----------4-----------4-------|-----4-----------2-----------4---|---------4-----------4-----------|
D|---------2-----------4-----------|-0-----------2-----------2-------|-----4-----------0-----------2---|
A|-----0-----------2---------------|---------0-----------0-----------|-2-----------------------0-------|
E|-----------------------------3---|---------------------------------|-------------3-------------------|


E|---------------------------------|---------------------------------|---------------------------------|
B|---------------------------------|---------------------------------|---------------------------------|
G|-2-----------4-----------4-------|-----4-----------2-----------4---|---------4-----------4-----------|
D|---------2-----------4-----------|-0-----------2-----------2-------|-----4-----------0-----------2---|
A|-----0-----------2---------------|---------0-----------0-----------|-2-----------------------0-------|
E|-----------------------------3---|---------------------------------|-------------3-------------------|


E|---------------------------------|---------------------------------|---------------------------------|
B|---------------------------------|---------------------------------|---------------------------------|
G|-2-----------4-----------4-------|-----4-----------2-----------4---|---------4-----------4-----------|
D|---------2-----------4-----------|-0-----------2-----------2-------|-----4-----------0-----------2---|
A|-----0-----------2---------------|---------0-----------0-----------|-2-----------------------0-------|
E|-----------------------------3---|---------------------------------|-------------3-------------------|


E|---------------------------------|---------------------------------|---------------------------------|
B|---------------------------------|---------------------------------|---------------------------------|
G|-2-----------4-----------4-------|-----4-----------2-----------4---|---------4-----------4-----------|
D|---------2-----------4-----------|-0-----------2-----------2-------|-----4-----------0-----------2---|
A|-----0-----------2---------------|---------0-----------0-----------|-2-----------------------0-------|
E|-----------------------------3---|---------------------------------|-------------3-------------------|


E|---------------------------------|---------------------------------|---------------------------------|
B|---------------------------------|---------------------------------|---------------------------------|
G|-2-----------4-----------4-------|-----4-----------2-----------4---|---------4-----------4-----------|
D|---------2-----------4-----------|-0-----------2-----------2-------|-----4-----------0-----------2---|
A|-----0-----------2---------------|---------0-----------0-----------|-2-----------------------0-------|
E|-----------------------------3---|---------------------------------|-------------3-------------------|


E|---------------------------------|---------------------------------|---------------------------------|
B|---------------------------------|---------------------------------|---------------------------------|
G|-2-----------4-----------4-------|-----4-----------2-----------4---|---------4-----------4-----------|
D|---------2-----------4-----------|-0-----------2-----------2-------|-----4-----------0-----------2---|
A|-----0-----------2---------------|---------0-----------0-----------|-2-----------------------0-------|
E|-----------------------------3---|---------------------------------|-------------3-------------------|


E|---------------------------------|---------------------------------|---------------------------------|
B|---------------------------------|---------------------------------|---------------------------------|
G|-2-----------4-----------4-------|-----4-----------2-----------4---|---------4-----------4-----------|
D|---------2-----------4-----------|-0-----------2-----------2-------|-----4-----------0-----------2---|
A|-----0-----------2---------------|---------0-----------0-----------|-2-----------------------0-------|
E|-----------------------------3---|---------------------------------|-------------3-------------------|


E|---------------------------------|---------------------------------|---------------------------------|
B|---------------------------------|---------------------------------|---------------------------------|
G|-2-----------4-----------4-------|-----4-----------2-----------4---|---------4-----------4-----------|
D|---------2-----------4-----------|-0-----------2-----------2-------|-----4-----------0-----------2---|
A|-----0-----------2---------------|---------0-----------0-----------|-2-----------------------0-------|
E|-----------------------------3---|---------------------------------|-------------3-------------------|


E|---------------------------------|---------------------------------|---------------------------------|
B|---------------------------------|---------------------------------|---------------------------------|
G|-2-----------4-----------4-------|-----4-----------2-----------4---|---------4-----------4-----------|
D|---------2-----------4-----------|-0-----------2-----------2-------|-----4-----------0-----------2---|
A|-----0-----------2---------------|---------0-----------0-----------|-2-----------------------0-------|
E|-----------------------------3---|---------------------------------|-------------3-------------------|


E|---------------------------------|---------------------------------|---------------------------------|
B|---------------------------------|---------------------------------|---------------------------------|
G|-2-----------4-----------4-------|-----4-----------2-----------4---|---------4-----------4-----------|
D|---------2-----------4-----------|-0-----------2-----------2-------|-----4-----------0-----------2---|
A|-----0-----------2---------------|---------0-----------0-----------|-2-----------------------0-------|
E|-----------------------------3---|---------------------------------|-------------3-------------------|


E|---------------------------------|---------------------------------|
B|---------------------------------|---------------------------------|
G|-2-----------4-----------4-------|-----4-----------2-----------4---|
D|---------2-----------4-----------|-0-----------2-----------2-------|
A|-----0-----------2---------------|---------0-----------0-----------|
E|-----------------------------3---|---------------------------------|





Track 2: Guitar 2 Smooth Dis.

E|--------|--------|--------|---------------10-------|-------------------12--|-15---17-----|
B|--------|--------|--------|-----------12------10---|---------------12------|-------------|
G|--------|--------|--------|-------12---------------|-------11--12----------|-------------|
D|--------|--------|--------|------------------------|-----------------------|-------------|
A|--------|--------|--------|------------------------|-----------------------|-------------|
E|--------|--------|--------|------------------------|-----------------------|-------------|


E|-19--17--14--15--14--10--12--10--|-9---------------7---9---10------|----------------|
B|---------------------------------|-----10--8---7---------------8---|-7---8---7------|
G|---------------------------------|---------------------------------|----------------|
D|---------------------------------|---------------------------------|----------------|
A|---------------------------------|---------------------------------|----------------|
E|---------------------------------|---------------------------------|----------------|


E|------------------------|-----------------------------|-----------------|------------------|
B|-10---10-------10-10----|-10-10----10-10----10--10----|------10----10---|-------0----------|
G|-12---12----12-------12-|-------12-------12-----------|------12----12---|-4-----7----------|
D|------------------------|-----------------------------|-----------------|-4-----5-----7----|
A|------------------------|-----------------------------|-----------------|-2-----------7----|
E|------------------------|-----------------------------|-----------------|-------------5----|


E|---------------------|------------------|------------------|-----------------|-------------|
B|-----------------0---|------------------|-------0----------|-----------------|-------------|
G|-----------4-----7---|------------------|-4-----7----------|-----------------|-------------|
D|-----9-----4-----5---|------7-----9-----|-4-----5-----7----|-----9-----9-----|------9------|
A|-----7-----2---------|------7-----7-----|-2-----------7----|-----7-----9-----|------9------|
E|-----5---------------|------5-----5-----|-------------5----|-----5-----7-----|------7------|


E|--------|--------|--------|--------|--------|--------|-2---2---2---3---3---3---0---0---|
B|--------|--------|--------|--------|--------|--------|-3---3---3---0---0---0---2---2---|
G|--------|--------|--------|--------|--------|--------|-4---4---4---0---0---0---2---2---|
D|--------|--------|--------|--------|--------|--------|-4---4---4---0---0---0---2---2---|
A|--------|--------|--------|--------|--------|--------|-2---2---2---2---2---2---0---0---|
E|--------|--------|--------|--------|--------|--------|-------------3---3---3-----------|


E|-0---0---0---0---2---2---2---3---|-3---3---0---0---0---0---0---0---|-2---2---2---3---3---3---0---0---|
B|-2---0---0---0---3---3---3---0---|-0---0---2---2---2---0---0---0---|-3---3---3---0---0---0---2---2---|
G|-2---4---4---4---4---4---4---0---|-0---0---2---2---2---4---4---4---|-4---4---4---0---0---0---2---2---|
D|-2---2---2---2---4---4---4---0---|-0---0---2---2---2---2---2---2---|-4---4---4---0---0---0---2---2---|
A|-0---0---0---0---2---2---2---2---|-2---2---0---0---0---0---0---0---|-2---2---2---2---2---2---0---0---|
E|-----------------------------3---|-3---3---------------------------|-------------3---3---3-----------|


E|-0---0---0---0---2---2---2---3---|-3---3---0---0---0---0---0---0---|--------|--------|
B|-2---0---0---0---3---3---3---0---|-0---0---2---2---2---0---0---0---|--------|--------|
G|-2---4---4---4---4---4---4---0---|-0---0---2---2---2---4---4---4---|--------|--------|
D|-2---2---2---2---4---4---4---0---|-0---0---2---2---2---2---2---2---|--------|--------|
A|-0---0---0---0---2---2---2---2---|-2---2---0---0---0---0---0---0---|--------|--------|
E|-----------------------------3---|-3---3---------------------------|--------|--------|


E|--------|--------|--------|--------|--------|--------|--------|--------|--------|
B|--------|--------|--------|--------|--------|--------|--------|--------|--------|
G|--------|--------|--------|--------|--------|--------|--------|--------|--------|
D|--------|--------|--------|--------|--------|--------|--------|--------|--------|
A|--------|--------|--------|--------|--------|--------|--------|--------|--------|
E|--------|--------|--------|--------|--------|--------|--------|--------|--------|


E|--------|-2---2---2---3---3---3---0---0---|-0---0---0---0---2---2---2---3---|-3---3---0---0---0---0---0---0---|
B|--------|-3---3---3---0---0---0---2---2---|-2---0---0---0---3---3---3---0---|-0---0---2---2---2---0---0---0---|
G|--------|-4---4---4---0---0---0---2---2---|-2---4---4---4---4---4---4---0---|-0---0---2---2---2---4---4---4---|
D|--------|-4---4---4---0---0---0---2---2---|-2---2---2---2---4---4---4---0---|-0---0---2---2---2---2---2---2---|
A|--------|-2---2---2---2---2---2---0---0---|-0---0---0---0---2---2---2---2---|-2---2---0---0---0---0---0---0---|
E|--------|-------------3---3---3-----------|-----------------------------3---|-3---3---------------------------|


E|-2---2---2---3---3---3---0---0---|-0---0---0---0---2---2---2---3---|-3---3---0---0---0---0---0---0---|
B|-3---3---3---0---0---0---2---2---|-2---0---0---0---3---3---3---0---|-0---0---2---2---2---0---0---0---|
G|-4---4---4---0---0---0---2---2---|-2---4---4---4---4---4---4---0---|-0---0---2---2---2---4---4---4---|
D|-4---4---4---0---0---0---2---2---|-2---2---2---2---4---4---4---0---|-0---0---2---2---2---2---2---2---|
A|-2---2---2---2---2---2---0---0---|-0---0---0---0---2---2---2---2---|-2---2---0---0---0---0---0---0---|
E|-------------3---3---3-----------|-----------------------------3---|-3---3---------------------------|


E|--------|--------|--------|--------|--------|--------|-2---2---2---3---3---3---0---0---|
B|--------|--------|--------|--------|--------|--------|-3---3---3---0---0---0---2---2---|
G|--------|--------|--------|--------|--------|--------|-4---4---4---0---0---0---2---2---|
D|--------|--------|--------|--------|--------|--------|-4---4---4---0---0---0---2---2---|
A|--------|--------|--------|--------|--------|--------|-2---2---2---2---2---2---0---0---|
E|--------|--------|--------|--------|--------|--------|-------------3---3---3-----------|


E|-0---0---0---0---2---2---2---3---|-3---3---0---0---0---0---0---0---|-2---2---2---3---3---3---0---0---|
B|-2---0---0---0---3---3---3---0---|-0---0---2---2---2---0---0---0---|-3---3---3---0---0---0---2---2---|
G|-2---4---4---4---4---4---4---0---|-0---0---2---2---2---4---4---4---|-4---4---4---0---0---0---2---2---|
D|-2---2---2---2---4---4---4---0---|-0---0---2---2---2---2---2---2---|-4---4---4---0---0---0---2---2---|
A|-0---0---0---0---2---2---2---2---|-2---2---0---0---0---0---0---0---|-2---2---2---2---2---2---0---0---|
E|-----------------------------3---|-3---3---------------------------|-------------3---3---3-----------|


E|-0---0---0---0---2---2---2---3---|-3---3---0---0---0---0---0---0---|-2---2---2---3---3---3---0---0---|
B|-2---0---0---0---3---3---3---0---|-0---0---2---2---2---0---0---0---|-3---3---3---0---0---0---2---2---|
G|-2---4---4---4---4---4---4---0---|-0---0---2---2---2---4---4---4---|-4---4---4---0---0---0---2---2---|
D|-2---2---2---2---4---4---4---0---|-0---0---2---2---2---2---2---2---|-4---4---4---0---0---0---2---2---|
A|-0---0---0---0---2---2---2---2---|-2---2---0---0---0---0---0---0---|-2---2---2---2---2---2---0---0---|
E|-----------------------------3---|-3---3---------------------------|-------------3---3---3-----------|


E|-0---0---0---0---2---2---2---3---|-3---3---0---0---0---0---0---0---|-2---2---2---3---3---3---0---0---|
B|-2---0---0---0---3---3---3---0---|-0---0---2---2---2---0---0---0---|-3---3---3---0---0---0---2---2---|
G|-2---4---4---4---4---4---4---0---|-0---0---2---2---2---4---4---4---|-4---4---4---0---0---0---2---2---|
D|-2---2---2---2---4---4---4---0---|-0---0---2---2---2---2---2---2---|-4---4---4---0---0---0---2---2---|
A|-0---0---0---0---2---2---2---2---|-2---2---0---0---0---0---0---0---|-2---2---2---2---2---2---0---0---|
E|-----------------------------3---|-3---3---------------------------|-------------3---3---3-----------|


E|-0---0---0---0---2---2---2---3---|-3---3---0---0---0---0---0---0---|--------|--------|
B|-2---0---0---0---3---3---3---0---|-0---0---2---2---2---0---0---0---|--------|--------|
G|-2---4---4---4---4---4---4---0---|-0---0---2---2---2---4---4---4---|--------|--------|
D|-2---2---2---2---4---4---4---0---|-0---0---2---2---2---2---2---2---|--------|--------|
A|-0---0---0---0---2---2---2---2---|-2---2---0---0---0---0---0---0---|--------|--------|
E|-----------------------------3---|-3---3---------------------------|--------|--------|


E|--------|--------|--------|--------|--------|--------|--------|--------|--------|
B|--------|--------|--------|--------|--------|--------|--------|--------|--------|
G|--------|--------|--------|--------|--------|--------|--------|--------|--------|
D|--------|--------|--------|--------|--------|--------|--------|--------|--------|
A|--------|--------|--------|--------|--------|--------|--------|--------|--------|
E|--------|--------|--------|--------|--------|--------|--------|--------|--------|


E|--------|--------|--------|--------|--------|--------|--------|------------------------------|
B|--------|--------|--------|--------|--------|--------|--------|------------------------------|
G|--------|--------|--------|--------|--------|--------|--------|-----7-----------7-------7----|
D|--------|--------|--------|--------|--------|--------|--------|---------7---9-------9--------|
A|--------|--------|--------|--------|--------|--------|--------|------------------------------|
E|--------|--------|--------|--------|--------|--------|--------|------------------------------|


E|-----------------------|---------------------------------|------------------------------|
B|-----------------------|---------------------------------|------------------------------|
G|-----------7-----------|-7-------------------------------|-----7-----------7-------7----|
D|---------------7---9---|-----9---12--11--9---7---9-------|---------7---9-------9--------|
A|-----------------------|---------------------------------|------------------------------|
E|-----------------------|---------------------------------|------------------------------|


E|-----------------------|---------------------------------|---------------------------------|
B|-----------------------|---------------------------------|-12------12--15------15--10------|
G|-----------7-----------|-7-------------------------------|-----11----------14----------9---|
D|---------------7---9---|-----9---12--11--9---7---9-------|---------------------------------|
A|-----------------------|---------------------------------|---------------------------------|
E|-----------------------|---------------------------------|---------------------------------|


E|---------------------------------|---------------------------------|---------------------------------|
B|-10--12--10------12------12--15--|-----15--10------10--12--10------|-12------12--15------15--10------|
G|-------------11------11----------|-14----------9---------------11--|-----11----------14----------9---|
D|---------------------------------|---------------------------------|---------------------------------|
A|---------------------------------|---------------------------------|---------------------------------|
E|---------------------------------|---------------------------------|---------------------------------|


E|---------------------------------|---------------------------------|
B|-10--12--10------12------12--15--|-----15--10------10--12--10------|
G|-------------11------11----------|-14----------9---------------11--|
D|---------------------------------|---------------------------------|
A|---------------------------------|---------------------------------|
E|---------------------------------|---------------------------------|





Track 3: Guitar 1 Clean

E|--------|--------|--------|--------|--------|--------|--------|--------|--------|
B|--------|--------|--------|--------|--------|--------|--------|--------|--------|
G|--------|--------|--------|--------|--------|--------|--------|--------|--------|
D|--------|--------|--------|--------|--------|--------|--------|--------|--------|
A|--------|--------|--------|--------|--------|--------|--------|--------|--------|
E|--------|--------|--------|--------|--------|--------|--------|--------|--------|


E|--------|--------|--------|--------|--------|--------|--------|--------|--------|
B|--------|--------|--------|--------|--------|--------|--------|--------|--------|
G|--------|--------|--------|--------|--------|--------|--------|--------|--------|
D|--------|--------|--------|--------|--------|--------|--------|--------|--------|
A|--------|--------|--------|--------|--------|--------|--------|--------|--------|
E|--------|--------|--------|--------|--------|--------|--------|--------|--------|


E|------------------------------|-----------------------|---------------------------------|
B|------------------------------|-----------------------|---------------------------------|
G|-----7-----------7-------7----|-----------7-----------|-7-------------------------------|
D|---------7---9-------9--------|---------------7---9---|-----9---12--11--9---7---9-------|
A|------------------------------|-----------------------|---------------------------------|
E|------------------------------|-----------------------|---------------------------------|


E|------------------------------|-----------------------|---------------------------------|
B|------------------------------|-----------------------|---------------------------------|
G|-----7-----------7-------7----|-----------7-----------|-7-------------------------------|
D|---------7---9-------9--------|---------------7---9---|-----9---12--11--9---7---9-------|
A|------------------------------|-----------------------|---------------------------------|
E|------------------------------|-----------------------|---------------------------------|


E|--------|--------|--------|--------|--------|--------|--------|--------|--------|
B|--------|--------|--------|--------|--------|--------|--------|--------|--------|
G|--------|--------|--------|--------|--------|--------|--------|--------|--------|
D|--------|--------|--------|--------|--------|--------|--------|--------|--------|
A|--------|--------|--------|--------|--------|--------|--------|--------|--------|
E|--------|--------|--------|--------|--------|--------|--------|--------|--------|


E|--------|--------|--------|------------------------------|-----------------------|
B|--------|--------|--------|------------------------------|-----------------------|
G|--------|--------|--------|-----7-----------7-------7----|-----------7-----------|
D|--------|--------|--------|---------7---9-------9--------|---------------7---9---|
A|--------|--------|--------|------------------------------|-----------------------|
E|--------|--------|--------|------------------------------|-----------------------|


E|---------------------------------|------------------------------|-----------------------|
B|---------------------------------|------------------------------|-----------------------|
G|-7-------------------------------|-----7-----------7-------7----|-----------7-----------|
D|-----9---12--11--9---7---9-------|---------7---9-------9--------|---------------7---9---|
A|---------------------------------|------------------------------|-----------------------|
E|---------------------------------|------------------------------|-----------------------|


E|---------------------------------|--------|--------|--------|--------|--------|--------|
B|---------------------------------|--------|--------|--------|--------|--------|--------|
G|-7-------------------------------|--------|--------|--------|--------|--------|--------|
D|-----9---12--11--9---7---9-------|--------|--------|--------|--------|--------|--------|
A|---------------------------------|--------|--------|--------|--------|--------|--------|
E|---------------------------------|--------|--------|--------|--------|--------|--------|


E|--------|--------|--------|--------|--------|--------|--------|--------|--------|
B|--------|--------|--------|--------|--------|--------|--------|--------|--------|
G|--------|--------|--------|--------|--------|--------|--------|--------|--------|
D|--------|--------|--------|--------|--------|--------|--------|--------|--------|
A|--------|--------|--------|--------|--------|--------|--------|--------|--------|
E|--------|--------|--------|--------|--------|--------|--------|--------|--------|


E|--------|--------|--------|--------|--------|--------|--------|--------|--------|
B|--------|--------|--------|--------|--------|--------|--------|--------|--------|
G|--------|--------|--------|--------|--------|--------|--------|--------|--------|
D|--------|--------|--------|--------|--------|--------|--------|--------|--------|
A|--------|--------|--------|--------|--------|--------|--------|--------|--------|
E|--------|--------|--------|--------|--------|--------|--------|--------|--------|


E|--------------------------------|-----------------------|----------------|---------------------------------|
B|-----12----------12-------------|-------12--10----------|----------------|-12------12--15--12------12------|
G|---------11--12------12-14-16---|---------------11--12--|-11-------------|-----11--------------14------11--|
D|--------------------------------|-----------------------|-----12--9------|---------------------------------|
A|--------------------------------|-----------------------|----------------|---------------------------------|
E|--------------------------------|-----------------------|----------------|---------------------------------|


E|---------------------------------|---------------------------------|---------------------------------|
B|-12--15--12------12------12--15--|-12------12------12--15--12------|-12--12------12--12------12------|
G|-------------14------11----------|-----14------11--------------14--|---------11----------11------11--|
D|---------------------------------|---------------------------------|---------------------------------|
A|---------------------------------|---------------------------------|---------------------------------|
E|---------------------------------|---------------------------------|---------------------------------|


E|-------------------------14--15--|-14--15--17-----|--------------------------------|
B|-12--15--12----------15----------|----------------|-----12----------12-------------|
G|-------------14--16--------------|----------------|---------11--12------12-14-16---|
D|---------------------------------|----------------|--------------------------------|
A|---------------------------------|----------------|--------------------------------|
E|---------------------------------|----------------|--------------------------------|


E|-----------------------|------------------|------------------------------|-----------------------|
B|-----------12----------|-12---------------|------------------------------|-----------------------|
G|---------------11--12--|-----12-14-16-----|-----7-----------7-------7----|-----------7-----------|
D|-----------------------|------------------|---------7---9-------9--------|---------------7---9---|
A|-----------------------|------------------|------------------------------|-----------------------|
E|-----------------------|------------------|------------------------------|-----------------------|


E|---------------------------------|------------------------------|-----------------------|
B|---------------------------------|------------------------------|-----------------------|
G|-7-------------------------------|-----7-----------7-------7----|-----------7-----------|
D|-----9---12--11--9---7---9-------|---------7---9-------9--------|---------------7---9---|
A|---------------------------------|------------------------------|-----------------------|
E|---------------------------------|------------------------------|-----------------------|


E|---------------------------------|--------|--------|--------|--------|--------|--------|
B|---------------------------------|--------|--------|--------|--------|--------|--------|
G|-7-------------------------------|--------|--------|--------|--------|--------|--------|
D|-----9---12--11--9---7---9-------|--------|--------|--------|--------|--------|--------|
A|---------------------------------|--------|--------|--------|--------|--------|--------|
E|---------------------------------|--------|--------|--------|--------|--------|--------|


E|--------|--------|--------|--------|--------|--------|
B|--------|--------|--------|--------|--------|--------|
G|--------|--------|--------|--------|--------|--------|
D|--------|--------|--------|--------|--------|--------|
A|--------|--------|--------|--------|--------|--------|
E|--------|--------|--------|--------|--------|--------|





Track 4: Guitar 1 Dirty dis.

E|--------|--------|--------|--------|--------|--------|--------|--------|--------|
B|--------|--------|--------|--------|--------|--------|--------|--------|--------|
G|--------|--------|--------|--------|--------|--------|--------|--------|--------|
D|--------|--------|--------|--------|--------|--------|--------|--------|--------|
A|--------|--------|--------|--------|--------|--------|--------|--------|--------|
E|--------|--------|--------|--------|--------|--------|--------|--------|--------|


E|--------|--------|--------|--------|--------|--------|--------|--------|--------|
B|--------|--------|--------|--------|--------|--------|--------|--------|--------|
G|--------|--------|--------|--------|--------|--------|--------|--------|--------|
D|--------|--------|--------|--------|--------|--------|--------|--------|--------|
A|--------|--------|--------|--------|--------|--------|--------|--------|--------|
E|--------|--------|--------|--------|--------|--------|--------|--------|--------|


E|--------|--------|--------|--------|--------|--------|---------------------------------|
B|--------|--------|--------|--------|--------|--------|---------------------------------|
G|--------|--------|--------|--------|--------|--------|---------4-----------4-----------|
D|--------|--------|--------|--------|--------|--------|-----4-----------0-----------2---|
A|--------|--------|--------|--------|--------|--------|-2-----------------------0-------|
E|--------|--------|--------|--------|--------|--------|-------------3-------------------|


E|---------------------------------|---------------------------------|---------------------------------|
B|---------------------------------|---------------------------------|---------------------------------|
G|-2-----------4-----------4-------|-----4-----------2-----------4---|---------4-----------4-----------|
D|---------2-----------4-----------|-0-----------2-----------2-------|-----4-----------0-----------2---|
A|-----0-----------2---------------|---------0-----------0-----------|-2-----------------------0-------|
E|-----------------------------3---|---------------------------------|-------------3-------------------|


E|---------------------------------|---------------------------------|---------------------------------|
B|---------------------------------|---------------------------------|-------------------------0---0---|
G|-2-----------4-----------4-------|-----4-----------2-----------4---|-4---4---4---4---4---4---7---7---|
D|---------2-----------4-----------|-0-----------2-----------2-------|-4---4---4---4---4---4---5---5---|
A|-----0-----------2---------------|---------0-----------0-----------|-2---2---2---2---2---2-----------|
E|-----------------------------3---|---------------------------------|---------------------------------|


E|---------------------------------|---------------------------|---------------------------------|
B|-0---0---0---0-------------------|---------------------------|-------------------------0---0---|
G|-7---7---7---7---2---2---2---2---|-2---2---4---4---4---------|-4---4---4---4---4---4---7---7---|
D|-5---5---5---5---2---2---2---2---|-2---2---2---2---2---------|-4---4---4---4---4---4---5---5---|
A|-----------------0---0---0---0---|-0---0---0---0---0---------|-2---2---2---2---2---2-----------|
E|---------------------------------|---------------------------|---------------------------------|


E|---------------------------------|---------------------------|--------|--------|
B|-0---0---0---0-------------------|---------------------------|--------|--------|
G|-7---7---7---7---2---2---2---2---|-2---2---4---4---4---------|--------|--------|
D|-5---5---5---5---2---2---2---2---|-2---2---2---2---2---------|--------|--------|
A|-----------------0---0---0---0---|-0---0---0---0---0---------|--------|--------|
E|---------------------------------|---------------------------|--------|--------|


E|--------|--------|--------|--------|---------------------------------|---------------------------------|
B|--------|--------|--------|--------|---------------------------------|---------------------------------|
G|--------|--------|--------|--------|---------4-----------4-----------|-2-----------4-----------4-------|
D|--------|--------|--------|--------|-----4-----------0-----------2---|---------2-----------4-----------|
A|--------|--------|--------|--------|-2-----------------------0-------|-----0-----------2---------------|
E|--------|--------|--------|--------|-------------3-------------------|-----------------------------3---|


E|---------------------------------|---------------------------------|---------------------------------|
B|---------------------------------|---------------------------------|---------------------------------|
G|-----4-----------2-----------4---|---------4-----------4-----------|-2-----------4-----------4-------|
D|-0-----------2-----------2-------|-----4-----------0-----------2---|---------2-----------4-----------|
A|---------0-----------0-----------|-2-----------------------0-------|-----0-----------2---------------|
E|---------------------------------|-------------3-------------------|-----------------------------3---|


E|---------------------------------|---------------------------------|---------------------------------|
B|---------------------------------|-------------------------0---0---|-0---0---0---0-------------------|
G|-----4-----------2-----------4---|-4---4---4---4---4---4---7---7---|-7---7---7---7---2---2---2---2---|
D|-0-----------2-----------2-------|-4---4---4---4---4---4---5---5---|-5---5---5---5---2---2---2---2---|
A|---------0-----------0-----------|-2---2---2---2---2---2-----------|-----------------0---0---0---0---|
E|---------------------------------|---------------------------------|---------------------------------|


E|---------------------------|---------------------------------|---------------------------------|
B|---------------------------|-------------------------0---0---|-0---0---0---0-------------------|
G|-2---2---4---4---4---------|-4---4---4---4---4---4---7---7---|-7---7---7---7---2---2---2---2---|
D|-2---2---2---2---2---------|-4---4---4---4---4---4---5---5---|-5---5---5---5---2---2---2---2---|
A|-0---0---0---0---0---------|-2---2---2---2---2---2-----------|-----------------0---0---0---0---|
E|---------------------------|---------------------------------|---------------------------------|


E|---------------------------|--------|--------|--------|--------|--------|--------|
B|---------------------------|--------|--------|--------|--------|--------|--------|
G|-2---2---4---4---4---------|--------|--------|--------|--------|--------|--------|
D|-2---2---2---2---2---------|--------|--------|--------|--------|--------|--------|
A|-0---0---0---0---0---------|--------|--------|--------|--------|--------|--------|
E|---------------------------|--------|--------|--------|--------|--------|--------|


E|--------|--------|--------|--------|--------|--------|--------|--------|--------|
B|--------|--------|--------|--------|--------|--------|--------|--------|--------|
G|--------|--------|--------|--------|--------|--------|--------|--------|--------|
D|--------|--------|--------|--------|--------|--------|--------|--------|--------|
A|--------|--------|--------|--------|--------|--------|--------|--------|--------|
E|--------|--------|--------|--------|--------|--------|--------|--------|--------|


E|--------|--------|--------|--------|--------|--------|--------|--------|--------|
B|--------|--------|--------|--------|--------|--------|--------|--------|--------|
G|--------|--------|--------|--------|--------|--------|--------|--------|--------|
D|--------|--------|--------|--------|--------|--------|--------|--------|--------|
A|--------|--------|--------|--------|--------|--------|--------|--------|--------|
E|--------|--------|--------|--------|--------|--------|--------|--------|--------|


E|--------|--------|--------|--------|--------|--------|--------|--------|--------|
B|--------|--------|--------|--------|--------|--------|--------|--------|--------|
G|--------|--------|--------|--------|--------|--------|--------|--------|--------|
D|--------|--------|--------|--------|--------|--------|--------|--------|--------|
A|--------|--------|--------|--------|--------|--------|--------|--------|--------|
E|--------|--------|--------|--------|--------|--------|--------|--------|--------|


E|--------|--------|--------|--------|--------|--------|--------|--------|--------|
B|--------|--------|--------|--------|--------|--------|--------|--------|--------|
G|--------|--------|--------|--------|--------|--------|--------|--------|--------|
D|--------|--------|--------|--------|--------|--------|--------|--------|--------|
A|--------|--------|--------|--------|--------|--------|--------|--------|--------|
E|--------|--------|--------|--------|--------|--------|--------|--------|--------|





Track 5: Untitled

G|--------|--------|--------|------------------|---------------------|------------------|
D|--------|--------|--------|------------------|---------------------|------------------|
A|--------|--------|--------|-2-----------0----|-----0-----2---------|------0-----0-----|
E|--------|--------|--------|-------3----------|-----------------3---|------------------|


G|------------------|---------------------|------------------|------------------|---------------------|
D|------------------|---------------------|------------------|------------------|---------------------|
A|-2-----------0----|-----0-----2---------|------0-----0-----|-2-----------0----|-----0-----2---------|
E|-------3----------|-----------------3---|------------------|-------3----------|-----------------3---|


G|------------------|------------------|---------------------|------------------|------------------|
D|------------------|------------------|---------------------|------------------|------------------|
A|------0-----0-----|-2-----------0----|-----0-----2---------|------0-----0-----|-2-----------0----|
E|------------------|-------3----------|-----------------3---|------------------|-------3----------|


G|---------------------|------------------|-19---19----------------|-----16---16--19---19------|
D|---------------------|------------------|----------17---17--19---|-19--------------------17--|
A|-----0-----2---------|------0-----0-----|------------------------|---------------------------|
E|-----------------3---|------------------|------------------------|---------------------------|


G|------------------16---16--|-19---19----------------|-----16---16--19---19------|
D|-----17--19---19-----------|----------17---17--19---|-19--------------------17--|
A|---------------------------|------------------------|---------------------------|
E|---------------------------|------------------------|---------------------------|


G|------------------16---16--|-19--18--16--19--18--16--19--18--|-16--14--16--18--19--18--16--19--|
D|-----17--19---19-----------|---------------------------------|---------------------------------|
A|---------------------------|---------------------------------|---------------------------------|
E|---------------------------|---------------------------------|---------------------------------|


G|-18--16--19--18--16--14--16--18--|-19--18--16--19--18--16--19--18--|-16--14--16--18--19--18--16--19--|
D|---------------------------------|---------------------------------|---------------------------------|
A|---------------------------------|---------------------------------|---------------------------------|
E|---------------------------------|---------------------------------|---------------------------------|


G|-18--16--19--18--16--14--16--18--|-19--19--19--19--19--19----------|---------------------------------|
D|---------------------------------|-------------------------17--17--|-17--17--17--17--19--19--19--19--|
A|---------------------------------|---------------------------------|---------------------------------|
E|---------------------------------|---------------------------------|---------------------------------|


G|---------16--16--16--------|-19--19--19--19--19--19----------|---------------------------------|
D|-19--19--------------------|-------------------------17--17--|-17--17--17--17--19--19--19--19--|
A|---------------------------|---------------------------------|---------------------------------|
E|---------------------------|---------------------------------|---------------------------------|


G|---------16--16--16--------|-19---19----------------|-----16---16--19---19------|
D|-19--19--------------------|----------17---17--19---|-19--------------------17--|
A|---------------------------|------------------------|---------------------------|
E|---------------------------|------------------------|---------------------------|


G|------------------16---16--|-19---19----------------|-----16---16--19---19------|
D|-----17--19---19-----------|----------17---17--19---|-19--------------------17--|
A|---------------------------|------------------------|---------------------------|
E|---------------------------|------------------------|---------------------------|


G|------------------16---16--|-19--18--16--19--18--16--19--18--|-16--14--16--18--19--18--16--19--|
D|-----17--19---19-----------|---------------------------------|---------------------------------|
A|---------------------------|---------------------------------|---------------------------------|
E|---------------------------|---------------------------------|---------------------------------|


G|-18--16--19--18--16--14--16--18--|-19--18--16--19--18--16--19--18--|-16--14--16--18--19--18--16--19--|
D|---------------------------------|---------------------------------|---------------------------------|
A|---------------------------------|---------------------------------|---------------------------------|
E|---------------------------------|---------------------------------|---------------------------------|


G|-18--16--19--18--16--14--16--18--|-19--19--19--19--19--19----------|---------------------------------|
D|---------------------------------|-------------------------17--17--|-17--17--17--17--19--19--19--19--|
A|---------------------------------|---------------------------------|---------------------------------|
E|---------------------------------|---------------------------------|---------------------------------|


G|---------16--16--16--------|-19--19--19--19--19--19----------|---------------------------------|
D|-19--19--------------------|-------------------------17--17--|-17--17--17--17--19--19--19--19--|
A|---------------------------|---------------------------------|---------------------------------|
E|---------------------------|---------------------------------|---------------------------------|


G|---------16--16--16--------|-19--18--19----------------|-----16------18--19--19--18------|
D|-19--19--------------------|-------------17----19--17--|-19------19------------------17--|
A|---------------------------|---------------------------|---------------------------------|
E|---------------------------|---------------------------|---------------------------------|


G|-----18----------18--16--16--18--|-19--18----------19----------18--|-----16--16--18--19----19--|
D|-17------19--19------------------|---------19--17------17--19------|-19------------------------|
A|---------------------------------|---------------------------------|---------------------------|
E|---------------------------------|---------------------------------|---------------------------|


G|------18-----|-19--18--16--14----14--12--|-11--12----19--19--19------|------------16----|
D|-------------|---------------------------|-----------------------17--|------19----------|
A|-------------|---------------------------|---------------------------|------------------|
E|-------------|---------------------------|---------------------------|------------------|


G|-19--19--19----------------------|-----16--16--16--19--19--19------|---------------------16--16--16--|
D|-------------17--17--17--19--19--|-19--------------------------17--|-17--17--19--19--19--------------|
A|---------------------------------|---------------------------------|---------------------------------|
E|---------------------------------|---------------------------------|---------------------------------|


G|-19---19----------------|-----16---16--19---19------|------------------16---16--|
D|----------17---17--19---|-19--------------------17--|-----17--19---19-----------|
A|------------------------|---------------------------|---------------------------|
E|------------------------|---------------------------|---------------------------|


G|-19---19----------------|-----16---16--19---19------|------------------16---16--|
D|----------17---17--19---|-19--------------------17--|-----17--19---19-----------|
A|------------------------|---------------------------|---------------------------|
E|------------------------|---------------------------|---------------------------|


G|-19---19----------------|-----16---16--19---19------|------------------16---16--|
D|----------17---17--19---|-19--------------------17--|-----17--19---19-----------|
A|------------------------|---------------------------|---------------------------|
E|------------------------|---------------------------|---------------------------|


G|-19---19----------------|-----16---16--19---19------|------------------16---16--|
D|----------17---17--19---|-19--------------------17--|-----17--19---19-----------|
A|------------------------|---------------------------|---------------------------|
E|------------------------|---------------------------|---------------------------|


G|-19---19----------------|-----16---16--19---19------|------------------16---16--|
D|----------17---17--19---|-19--------------------17--|-----17--19---19-----------|
A|------------------------|---------------------------|---------------------------|
E|------------------------|---------------------------|---------------------------|


G|-19---19----------------|-----16---16--19---19------|------------------16---16--|
D|----------17---17--19---|-19--------------------17--|-----17--19---19-----------|
A|------------------------|---------------------------|---------------------------|
E|------------------------|---------------------------|---------------------------|


G|-19---19----------------|-----16---16--19---19------|------------------16---16--|
D|----------17---17--19---|-19--------------------17--|-----17--19---19-----------|
A|------------------------|---------------------------|---------------------------|
E|------------------------|---------------------------|---------------------------|


G|-19---19----------------|-----16---16--19---19------|------------------16---16--|
D|----------17---17--19---|-19--------------------17--|-----17--19---19-----------|
A|------------------------|---------------------------|---------------------------|
E|------------------------|---------------------------|---------------------------|


G|-19---19----------------|-----16---16--19---19------|------------------16---16--|
D|----------17---17--19---|-19--------------------17--|-----17--19---19-----------|
A|------------------------|---------------------------|---------------------------|
E|------------------------|---------------------------|---------------------------|


G|-19---19----------------|-----16---16--19---19------|------------------16---16--|
D|----------17---17--19---|-19--------------------17--|-----17--19---19-----------|
A|------------------------|---------------------------|---------------------------|
E|------------------------|---------------------------|---------------------------|